Bosquito - Doua maini (solo)

E-----------------------------------------
B--5-6-6s8-8-8-8----8s10-10-10-8-6-6h8----
G-----------------------------------------

E----------------------------------------------------------
B-----------------------------------------10-10-10-8--8-8--
G--5-7-7s9-9-9-9----10-10-10-9-7-7h9-----------------------

E--8--8--8--7-7-7-5-5-5-3-3-5-3-1-0----
B--10-10-10-8-8-8-6-6-6-5-5-6-5-3-1----
G--------------------------------------

E----------7--10p7----------------------------------------
B--6p5-6-8---------8p6-6p5--------------------------------
G-----------------------------------------------------0-2-
D--------------------------2h3p2------------------0-2-----
A-------------------------------------------0-2-3---------
E--------------------------------3~~~~----3---------------

s=slide
h=hammer on
p=pull of

nota: bineinteles ca este indicat sa fie ascultata melodia inainte. bafta!

Transpunerile de pe acest site reprezintă viziunea personală a utilizatorilor asupra pieselor.
ddc8d4f24b16e01f134c37bab77f7abc
f7e9d1d2-ebba-44ba-8198-e810bddf71a6