Brigada de asalt - Capitanul

intro/refren
-------------------------------------------------
-------------------------------------------------
-------------------------------------------------
---7-----2-----7----------7----------------------
---7-----2-----7-----7---------7-----------------
---5-----0-----5---------------------------------

--------------------------------------------------
--------------------------------------------------
--------------------------------------------------
---9-9-9-9-9-9-9-9-9-9-9-8-8-8-8-8-8-8-8-8-8-8----
---9-9-9-9-9-9-9-9-9-9-9-8-8-8-8-8-8-8-8-8-8-8----
---7-7-7-7-7-7-7-7-7-7-7-6-6-6-6-6-6-6-6-6-6-6----
PM|-------------------------------------------|




Versuri(discurul lui Corneliu Zelea Codreanu)
---------------------------------------------------
---------------------------------------------------
---------------------------------------------------
--7-7-7-7-7-7-7-7-7-7-7-7-7-7-7-7-7-7-7-7-7--------
--7-7-7-7-7-7-7-7-7-7-7-7-7-7-7-7-7-7-7-7-7--------
--5-5-5-5-5-5-5-5-5-5-5-5-5-5-5-5-5-5-5-5-5--------
PM|----------------------------------------|

---------------------------------------------------
---------------------------------------------------
---------------------------------------------------
--3-3-3-3-3-3-3-3-3-3-3----------------------------
--3-3-3-3-3-3-3-3-3-3-3----------------------------
--1-1-1-1-1-1-1-1-1-1-1----------------------------
PM|--------------------|

--------------------------------------------------
--------------------------------------------------
--------------------------------------------------
---9-9-9-9-9-9-9-9-9-9-9-8-8-8-8-8-8-8-8-8-8-8----
---9-9-9-9-9-9-9-9-9-9-9-8-8-8-8-8-8-8-8-8-8-8----
---7-7-7-7-7-7-7-7-7-7-7-6-6-6-6-6-6-6-6-6-6-6----
PM|-------------------------------------------|


Versuri:

Dragi camarazi, 
Dupa 15 ani de lupte, de prigoniri si de jertfe, 
Tineretul Romaniei trebuie sa stie 
Ca ceasul biruintei legionare nu mai este departe. 
Toate incercarile de vrasmasie vor fi strivite; 
Toate planurile de ademenire; 
Toate incercarile de cumparare a sufletelor; 
Toate incercarile de dezbinare; 
Si toate tradarile vor cadea la pamant! 

Refren: 
Cand Brazii au cazut, toata padurea a tacut 
Cand Brazii au cazut si toti luceferii-au apus 
Cand Brazii au cazut, un vis frumos s-a naruit 
Cand Brazii au cazut si totul s-a sfarsit 
Cand Brazii au cazut... 

Priviti-i drept in ochi pe toti tiranii vostri; 
Indurati cu resemnare orice lovitura; 
Suportati orice chin. 
Caci jertfa noastra, a tuturor va fi temelia de fier, 
De trupuri frante si de suflete chinuite a biruintei. 
Acei ce vor cadea dintre noi, 
Vor avea nume si morminte de eroi; 
Iar cei ce ne vor ucide vor purta nume de tradatori 
Si vor fi blestemati din neam in neam!

Refren 

Din adancuri se inalta biruitor legionarul 
Cu sufletul sau de stanca! 
Cei ce cred ca-l pot invinge, 
Ca si cei ce cred ca-l pot cumpara, 
Se vor convinge in curand, 
Dar prea tarziu, 
Ca s-au inselat! 

Refren 

www.brigadadeasalt.ro
6Ld5REUUAAAAAA1PBEDya2BDGnf5rYKeKnmYm4Cz
4e5b72035994c18c76b15a97085836e8