Bucovina - Tăriile văzduhului (Guitar Pro)

pt. GuitarPro 7.5 sau mai nou (cu RSE)

E |----------------------------------------------------|
B |--3b----------------------1-----------------1s------|
G |--------------------------------2--------2----------|
D |----------------------------------------------------|
A |----------------------------------------------------|
E |----------------------------------------------------|

                                                    
----------------------------|--3b-3t---------------|
--3-----3s-5s-8-------------|--------6--5--3--1----|
----------------------------|----------------------|
----------------------------|----------------------|
----------------------------|----------------------|
----------------------------|----------------------|

                                                     
----------------------------------------------------|
--1-----------1-----3--5--3-----------1-----3-------|
----------------------------------------------------|
----------------------------------------------------|
----------------------------------------------------|
----------------------------------------------------|

                                                     
--------------------3--3>---------------------------|
--5s----------5-------------------------------------|
----------------------------------------------------|
----------------------------------------------------|
----------------------------------------------------|
----------------------------------------------------|

                                                     
--------------------3--3--3-------------------------|
--3s----------3-------------------------------------|
----------------------------------------------------|
----------------------------------------------------|
----------------------------------------------------|
----------------------------------------------------|

                                                                             
--------------10----------------------10-------10b--------------------------|
--10----------------------10------------------------------------------------|
----------------------------------------------------------------------------|
----------------------------------------------------------------------------|
----------------------------------------------------------------------------|
----------------------------------------------------------------------------|

                                                                                
--8-----------------------------------------------10----------------------------
--------------------------------------------------------------------------------
--------------------------------------------------------------------------------
--------------------------------------------------------------------------------
--------------------------------------------------------------------------------
--------------------------------------------------------------------------------

                                                                                
------------------12----------------------------------------------10------------
--------------------------------------------------------------------------------
--------------------------------------------------------------------------------
--------------------------------------------------------------------------------
--------------------------------------------------------------------------------
--------------------------------------------------------------------------------

                                                                                
----------------------8h-------10h------8---------------------------------------
--------------------------------------------------------------------------------
--------------------------------------------------------------------------------
--------------------------------------------------------------------------------
--------------------------------------------------------------------------------
--------------------------------------------------------------------------------

                                                             
----------------------------------------------------|--8----|
-----12---------------------------------------------|-------|
----------------------------------------------------|-------|
----------------------------------------------------|-------|
----------------------------------------------------|-------|
----------------------------------------------------|-------|

                                                          
----------------------------|----------------------------|
--15b------13----------13s--|--15----15-17s20------------|
--------------14----14------|----------------------------|
----------------------------|----------------------------|
----------------------------|----------------------------|
----------------------------|----------------------------|

                                                                            
--15b15t--------------|----------------------------------------------------|
--------18-17-15-13---|--13----------13----15-17-15----------13----15------|
----------------------|----------------------------------------------------|
----------------------|----------------------------------------------------|
----------------------|----------------------------------------------------|
----------------------|----------------------------------------------------|

                                                     
--------------------15-15-15>-----------------------|
--17s---------17------------------------------------|
----------------------------------------------------|
----------------------------------------------------|
----------------------------------------------------|
----------------------------------------------------|

                             
-----------15-15------------|
--15s---15------------------|
----------------------------|
----------------------------|
----------------------------|
----------------------------|

                                                                             
--------------22----------------------22-------22b--------------------------|
--22----------------------22------------------------------------------------|
----------------------------------------------------------------------------|
----------------------------------------------------------------------------|
----------------------------------------------------------------------------|
----------------------------------------------------------------------------|

                                                                                
--20----------------------------------------------22----------------------------
--------------------------------------------------------------------------------
--------------------------------------------------------------------------------
--------------------------------------------------------------------------------
--------------------------------------------------------------------------------
--------------------------------------------------------------------------------

                                                                                
------------------24----------------------------------------------22------------
--------------------------------------------------------------------------------
--------------------------------------------------------------------------------
--------------------------------------------------------------------------------
--------------------------------------------------------------------------------
--------------------------------------------------------------------------------

                                                                                
----------------------20h------22h------20--------------------------------------
--------------------------------------------------------------------------------
--------------------------------------------------------------------------------
--------------------------------------------------------------------------------
--------------------------------------------------------------------------------
--------------------------------------------------------------------------------

                                                                              
----------------------------------------------------|----------------|-------|
-----24---------------------------------------------|--22------------|-------|
----------------------------------------------------|----------------|-------|
----------------------------------------------------|----------------|-------|
----------------------------------------------------|----------------|-------|
----------------------------------------------------|----------------|-------|

                                                                                
-------|-------|-------|-------|-------|-------|-------|-------|-------|-------|
-------|-------|-------|-------|-------|-------|-------|-------|-------|-------|
-------|-------|-------|-------|-------|-------|-------|-------|-------|-------|
-------|-------|-------|-------|-------|-------|-------|-------|-------|-------|
-------|-------|-------|-------|-------|-------|-------|-------|-------|-------|
-------|-------|-------|-------|-------|-------|-------|-------|-------|-------|

                                                                                
-------|-------|-------|-------|-------|-------|-------|-------|-------|-------|
-------|-------|-------|-------|-------|-------|-------|-------|-------|-------|
-------|-------|-------|-------|-------|-------|-------|-------|-------|-------|
-------|-------|-------|-------|-------|-------|-------|-------|-------|-------|
-------|-------|-------|-------|-------|-------|-------|-------|-------|-------|
-------|-------|-------|-------|-------|-------|-------|-------|-------|-------|

                                                                                
-------|--20---|--20---|-------|-------|-------|-------|-------|-------|-------|
-------|-------|-------|-------|-------|-------|-------|-------|-------|-------|
-------|-------|-------|-------|-------|-------|-------|-------|-------|-------|
-------|-------|-------|-------|-------|-------|-------|-------|-------|-------|
-------|-------|-------|-------|-------|-------|-------|-------|-------|-------|
-------|-------|-------|-------|-------|-------|-------|-------|-------|-------|

                                                                                
-------|-------|-------|-------|-------|-------|-------|-------|-------|-------|
-------|-------|-------|-------|-------|-------|-------|-------|-------|-------|
-------|-------|-------|-------|-------|-------|-------|-------|-------|-------|
-------|-------|-------|-------|-------|-------|-------|-------|-------|-------|
-------|-------|-------|-------|-------|-------|-------|-------|-------|-------|
-------|-------|-------|-------|-------|-------|-------|-------|-------|-------|

                                                                                
-------|-------|-------|-------|-------|-------|-------|-------|-------|-------|
-------|-------|-------|-------|-------|-------|-------|-------|-------|-------|
-------|-------|-------|-------|-------|-------|-------|-------|-------|-------|
-------|-------|-------|-------|-------|-------|-------|-------|-------|-------|
-------|-------|-------|-------|-------|-------|-------|-------|-------|-------|
-------|-------|-------|-------|-------|-------|-------|-------|-------|-------|

                                                                                
-------|-------|-------|-------|-------|-------|-------|-------|-------|-------|
-------|-------|-------|-------|-------|-------|-------|-------|-------|-------|
-------|-------|-------|-------|-------|-------|-------|-------|-------|-------|
-------|-------|-------|-------|-------|-------|-------|-------|-------|-------|
-------|-------|-------|-------|-------|-------|-------|-------|-------|-------|
-------|-------|-------|-------|-------|-------|-------|-------|-------|-------|

                                                                                
-------|-------|-------|-------|-------|-------|-------|-------|-------|-------|
-------|-------|-------|-------|-------|-------|-------|-------|-------|-------|
-------|-------|-------|-------|-------|-------|-------|-------|-------|-------|
-------|-------|-------|-------|-------|-------|-------|-------|-------|-------|
-------|-------|-------|-------|-------|-------|-------|-------|-------|-------|
-------|-------|-------|-------|-------|-------|-------|-------|-------|-------|

                                                         
-------|-------|-------|-------|-------|----------------|
-------|-------|-------|-------|-------|--13L13L13L13---|
-------|-------|-------|-------|-------|----------------|
-------|-------|-------|-------|-------|----------------|
-------|-------|-------|-------|-------|----------------|
-------|-------|-------|-------|-------|----------------|

  =        =  =     =  =       =        =  =     =  =     
----------------------------|----------------------------|
--13-------12-10----12-13---|--15-------13-12----13-15---|
----------------------------|----------------------------|
----------------------------|----------------------------|
----------------------------|----------------------------|
----------------------------|----------------------------|

  =     =     =     =  =       =     =                    
----------------------------|----------------------------|
--17----15----13----12-13---|--15----13----12------------|
----------------------------|-----------------12-12------|
----------------------------|----------------------------|
----------------------------|----------------------------|
----------------------------|----------------------------|

  =  =  =  =  =  =  =  =  =  =  =  =  =  =  =  =  =  =  =  =  =  =  =  =     
----------------------------------------------------------------------------|
--13-12-10-13-12-10-13-12-10-13-12-10-13-12-10-13-12-10-13-12-10-13-12-10---|
----------------------------------------------------------------------------|
----------------------------------------------------------------------------|
----------------------------------------------------------------------------|
----------------------------------------------------------------------------|

  =  =  =  =  =  =  =  =  =  =  =  =  =  =  =  =  =  =  =  =  =  =  =  =     
----------------------------------------------------------------------------|
--15-13-12-15-13-12-15-13-12-15-13-12-15-13-12-15-13-12-15-13-12-15-13-12---|
----------------------------------------------------------------------------|
----------------------------------------------------------------------------|
----------------------------------------------------------------------------|
----------------------------------------------------------------------------|

  =  =  =  =  =  =  =  =  =  =  =  =  =  =  =  =  =  =  =  =  =  =  =  =     
----------------------------------------------------------------------------|
--17-15-13-17-15-13-17-15-13-17-15-13-17-15-13-17-15-13-17-15-13-17-15-13---|
----------------------------------------------------------------------------|
----------------------------------------------------------------------------|
----------------------------------------------------------------------------|
----------------------------------------------------------------------------|

  =           =           =           =           =           =           =     
--------------------------------------------------------------------------------
--15----------13----------12----------15----------13----------12----------15----
--------------------------------------------------------------------------------
--------------------------------------------------------------------------------
--------------------------------------------------------------------------------
--------------------------------------------------------------------------------

      =           =           =           =
--------------------------------------------------------------------------------
------13----------12----------15----------13----------12----------15------------
--------------------------------------------------------------------------------
--------------------------------------------------------------------------------
--------------------------------------------------------------------------------
--------------------------------------------------------------------------------


--------------------------------------------------------------------------------
----------------------13----------------------------------12h------13h------12--
--------------------------------------------------------------------------------
--------------------------------------------------------------------------------
--------------------------------------------------------------------------------
--------------------------------------------------------------------------------


----------------------------------------------------|
--------------10------------------------------------|
----------------------------------------------------|
----------------------------------------------------|
----------------------------------------------------|
----------------------------------------------------|


--------------------------------------------------------------------------------
--------------------------------------------------------------------------------
--14----------------------------------------------14----------17----------16----
--------------14----------------------14----------------------------------------
--------------------------15----------------------------------------------------
--------------------------------------------------------------------------------


--------------------|----------------------------|
--------------------|----------------------------|
------14h16-14------|----------------------------|
--------------------|--14s------12---------------|
--------------------|--------------15-12-12------|
--------------------|----------------------------|


--------------------------------------------------------------------------------
-----------------------------------------------------------------------12-13-15-
--------------------------------------------------------12-------12-14----------
--------------------12-------12-14----12-14-15-12-14-15----14-15----------------
--12-14-15-12-14-15----14-15-------15-------------------------------------------
--------------------------------------------------------------------------------


12-13-15----15>-----|
--------------------|
--------------------|
--------------------|
--------------------|
--------------------|


--17----17------------------------------------------------------------------|
--------------17----17------------------------------------------------------|
--------------------------17----19----19----14L---14L---14s-----------------|
----------------------------------------------------------------------------|
----------------------------------------------------------------------------|
----------------------------------------------------------------------------|


--------------------------------------------------------------------------------
--------------------------------------------------------------------------------
--14----------------------------------------------14----------17----------16----
--------------14----------------------14----------------------------------------
--------------------------15----------------------------------------------------
--------------------------------------------------------------------------------


--------------------|----------------------------|
--------------------|----------------------------|
------14h16-14------|----------------------------|
--------------------|--14s------12---------------|
--------------------|--------------15-12-12------|
--------------------|----------------------------|


--------------------------------------------------------------------------------
--13-12h10h12-13-12h10h12-13-12h10h12-13-12h10h12-15-10h8h-10-15-10h8h-10-15-10h
--------------------------------------------------------------------------------
--------------------------------------------------------------------------------
--------------------------------------------------------------------------------
--------------------------------------------------------------------------------


--------------------|
8h-10-15-10h8h-10---|
--------------------|
--------------------|
--------------------|
--------------------|


--------------------------------------------------------------------------------
--18-8h-6h-8--18-8h-6h-8--18-8h-6h-8--18-8h-6h-8--18-8h-6h-8--18-8h-6h-8--18-8h-
--------------------------------------------------------------------------------
--------------------------------------------------------------------------------
--------------------------------------------------------------------------------
--------------------------------------------------------------------------------


--------------------|--12------------------------------------------------|
6h-8--6-----8-------|----------------------------------------------------|
--------------------|----------------------------------------------------|
--------------------|----------------------------------------------------|
--------------------|--------------------------7-----------10------------|
--------------------|----------------------------------------------------|


----------------|-------|-------|-------|-------|-------|-------|-------|
----------------|-------|-------|-------|-------|-------|-------|-------|
----------------|-------|-------|-------|-------|-------|-------|-------|
----------------|-------|-------|-------|-------|-------|-------|-------|
----------------|-------|-------|-------|-------|-------|-------|-------|
----------------|-------|-------|-------|-------|-------|-------|-------|


-------|-------|-------|-------|-------|-------|-------|-------|-------|-------||
-------|-------|-------|-------|-------|-------|-------|-------|-------|-------||
-------|-------|-------|-------|-------|-------|-------|-------|-------|-------||
-------|-------|-------|-------|-------|-------|-------|-------|-------|-------||
-------|-------|-------|-------|-------|-------|-------|-------|-------|-------||
-------|-------|-------|-------|-------|-------|-------|-------|-------|-------||


Transpunerile de pe acest site reprezintă viziunea personală a utilizatorilor asupra pieselor.
e5f09037b53130dacb93da45946712a1
f7e9d1d2-ebba-44ba-8198-e810bddf71a6