Bucovina - Zi după zi, noapte de noapte (intro)

e------------------------------------------------------
B----------------------------------3-------------------
G------4---2------2---4--------4-------2---4-----------
D--2----------5------------2---------------------------
A------------------------------------------------------
E------------------------------------------------------



e------------------------------------------------------
B---------------------------------------3--------------
G------4---2------2---4--5--4--2-----4-----2-----------
D--2----------5-------------------5-----------5--------
A------------------------------------------------------
E------------------------------------------------------


Se tot repeta pana intra strofa. Succes! :D
5431054e0bb53eec3451d224bf6bf08c