Butterflies in My Stomach - Tricoul (intro)

e-----7-----------------------------------------------
B-----7h8h7h8h7~-------------------------5/9---9---7--
G-----7-------------9---7-----------------------------
D---------------------------9---7/5-------------------
A-----------------------------------------------------
E-----------------------------------------------------

e-----------------------------------------------------
B--------------------------------9---7h8h7h8h7~-------
G--9----7-------------9---7---------------------------	
D----------9---7--------------------------------------
A-----------------------------------------------------
E-----------------------------------------------------


e------7--------------------------------------------------------------------------
B------7h8h7h87~-------------------------5/9---9---7------------------------------
G------7------------9---7------------------------------9---7----------------------
D---------------------------9---7/5----------------------------9---7/5------------
A-------------------------------------------------------------------------7---9---
E---------------------------------------------------------------------------------
a60c16eda490a3647cc7a4a27851ffd3