Butterflies in My Stomach - Tricoul - intro

E |----------------------------------------------------|
B |--------7-----------8-----------7h-8h-7-------------|
G |--------7-------------------------------------------|
D |--------7-------------------------------------------|
A |----------------------------------------------------|
E |----------------------------------------------------|

                                                     
--------------------------------------7-------------|
--------------------------------------------8-------|
--9-----6-------------------------------------------|
--------------------7--6--5-------------------------|
----------------------------------------------------|
----------------------------------------------------|

                                              
--------------------7-------|----------------|
-----------------7-----8----|--7h-8h-7-------|
--9--7--6--7--9-------------|----------------|
----------------------------|----------------|
----------------------------|----------------|
----------------------------|----------------|

        ^
----------------------------------------------------|
--------7-----------8-----------7h-8h-7-------------|
--------7-------------------------------------------|
--------7-------------------------------------------|
----------------------------------------------------|
----------------------------------------------------|


--------------------------------------7-------------|
--------------------------------------------8-------|
--9-----6-------------------------------------------|
--------------------7--6--5-------------------------|
----------------------------------------------------|
----------------------------------------------------|


----------------------------|----||
--------7-------------------|----||
--9--7-----9--7--6----------|----||
--------------------7--9----|----||
----------------------------|----||
----------------------------|----||
6Ld5REUUAAAAAA1PBEDya2BDGnf5rYKeKnmYm4Cz
b4d1a83ce85e62aed28a8fa5e6b67eff