Cântece creștine - Aleluia (Solo)

  • (2 voturi)
  • Contribuție:  sammy81
G    C   G     C
//: Aleluia, Aleluia
   D            C         G
Domnul nostru domneşte în veci : //
      C
   Aleluia
         G
Tu eşti sfânt, eşti sfânt
       C    G    Em  D
Domnul nostru, din ceruri
         C
//: Vrednic eşti în veci
                G
Căci Tu Doar eşti sfânt : // 
        C   G     D
Domnul nostru din ceruri
             C
//: Vrednic eşti în veci : //
  G
Amin 

Solo chiara electrica


e:---------------------------------------------------------
B:--------------------------------------------------------
G:---------------------------------------------------------
D:-7-9—9s10—9v----7--9—9s10—9v----7--9--9s10-9v---
A:---------------------------------------------------------
E:---------------------------------------------------------



e:----------------------------------------------------------
B:----------------------------------------------------------
G:----------------------------------------------------------
D:-9p7-5-7-7-7h9p--5--7h9---5-10-10-10s9v------
A:-------------------7----7--------------------------------
E:----------------------------------------------------------

e:----------------------------------------------------------
B:----------------------------------------------------------
G:----------------------------------------------------------
D:--7--9—9s10—9v---7--9—9s10—9v---7--9—-9s10--9v--
A:----------------------------------------------------------
E:----------------------------------------------------------

e:----------------------------------------------------------
B:----------------------------------------------------------
G:----------------------------------------------------------
D:--9p7--5--7--7--7-7-7h9----5-----7h9----5---10--10-10s9v--
A:------------------------7-----7---------------------------
E:----------------------------------------------------------
6Ld5REUUAAAAAA1PBEDya2BDGnf5rYKeKnmYm4Cz
56645fe6e319422058276504a97ce551