Cântece creștine - Este oare iertare? (tab)

Este oare iertare:
e--0--2--3--3--3--2--0--0--0----------
B-----------------------------3--1--0-
G-------------------------------------2
D-------------------------------------
A-------------------------------------
E------------------------------------- 
Se repeta de 2 ori. 

Inaintea ta:

e-------------------------------------
B--------0--0--0--1--1--0--0----------
G--0--2-----------------------2--0--2-
D-------------------------------------
A-------------------------------------
E-------------------------------------
Se repeta de 2 ori.

Stiu Domnul meu:

e--0--0------3--3--5--3--2--0--0--0--0--0-----------
B-------3--3------------------------------3--0--3--3
G---------------------------------------------------
D---------------------------------------------------
A---------------------------------------------------
E---------------------------------------------------
La oare ma poti ierta se canta partea de la inaintea Ta.
6Ld5REUUAAAAAA1PBEDya2BDGnf5rYKeKnmYm4Cz
ee623503f22a2f137ece8d353a7f834f