Cargo - Apocalipsa (solo)

Dm                                          
e|--------0--0h1p0---|--------0--0h1p0---|--------0--0h1p0---|
B|-----3-----------3-|-----3-----------3-|-----3-----------3-|
G|------2------------|------3------------|------4------------|
D|--0----------------|--0----------------|--0----------------|
A|-------------------|-------------------|-------------------|
E|-------------------|-------------------|-------------------|

e|--------3---1-0----|
B|-----3-------------|
G|------3------------|
D|--0----------------|
A|-------------------|
E|-------------------|
  • costin.sechila
    2 octombrie 2012 23:21
    bai si a inceput sa cante marian asta cu porky...
f6e67126848c95dccb4faf4471f64106