Cargo - Calare pe motoare (solo)

----------------------------|---------------------------------|
----------------------------|---------------------------------|
----------------------------|-------------------------<>2b----|
-----2--5-4-0---0---2----2--|--5-4-0---0---<>2~----2----------|
----------------------------|---------------------------------|
----------------------------|---------------------------------|


                                                        SH     
  E  E  S S S S S S Q    E     S S S S S S   Q     E    Q      
----------------------------|---------------------------------|
----------------------------|---------------------------------|
----------------------------|-------------------------<>2b----|
-----2--5-4-0---0---2----2--|--5-4-0---0---<>2~----2----------|
----------------------------|---------------------------------|
----------------------------|---------------------------------|


  E  E  S S S S S S Q    E     S S S S S S   Q     E  Q      
----------------------------|-------------------------------|
----------------------------|-------------------------------|
----------------------------|-------------------------2b----|
--------5-4-0---0---2-------|--5-4-0---0---<>2~-------------|
-----3-------------------3--|----------------------3--------|
----------------------------|-------------------------------|


                                             SH                             
  E  E  S S S S S S Q    E     S S S S S S   Q    E  Q                      
----------------------------|------------------------------|-------|-------|
----------------------------|------------------------------|-------|-------|
----------------------------|------------------------------|-------|-------|
-----0--5-4-2---0---2----0--|--5-4-2---0---<>2-------------|-------|-------|
----------------------------|------------------------7S----|-------|-------|
----------------------------|------------------------------|-------|-------|
6Ld5REUUAAAAAA1PBEDya2BDGnf5rYKeKnmYm4Cz
c80d885fff00c9033ae2c93c90612fe0