Cargo - Colinda aleasă

Solo 1 :

E|----------8------------------
B|----8-------8--6-6/86-5-3---
G|-5---------------------------
D|-----------------------------
A|-----------------------------
E|-----------------------------


E|-----------------------------
B|-----------------------------
G|-----------------------------
D|-5-3-2--3/53-2/3------------
A|-----------------------------
E|-----------------------------

Versuri :

C                  F      G
Iata s-a-nserat si noi am plecat
C                  F      G
Sa va colindam, sa va bucuram 
%Am     C           F      G5
Sapte voinicei toti cu zurgalai
Am     C           F      G
Sapte feti-frumosi, tari si 
C
inimosi

Solo 2 :

E|------------------------------
B|----------2--5--6--10--8-6/86
G|-5--2--5----------------------
D|------------------------------
A|------------------------------
E|------------------------------


E|------------------------------
B|-5/65--3--1------3-5--6-5/65
G|-------------2--5-------------
D|------------------------------
A|------------------------------
E|------------------------------

E|-------|
B|-3-3-1-|
G|-------|
D|-------|
A|-------|
E|-------|

...  ...  ...  ...

Succes! ^^
6Ld5REUUAAAAAA1PBEDya2BDGnf5rYKeKnmYm4Cz
d4635f952a0840ed952a717b5c57cbc8