Cargo - Femeia (fișier GuitarPro)

Varianta pt. Pro 6 cu RSE instalat.

Legend
L - tied note
x - dead note
h - hammer on/pull off
b - bend
s - slide
~ - vibrato
g - ghost note
> - accentuated note
t - trill
M - palm mute
. - staccato
P - popping (bass)
S - slapping (bass)
+ - tapping
W - wide vibrato
< - fade in
w - whammy bar
= - tremolo picking
v - brush up
^ - brush down
V - pick stroke up
n - pick stroke down


E |----------------------------------------------------|
B |----------------------------------------------------|
G |-----------------------7----------------------------|
D |--7L----------7--5-----7-----------------5--4-------|
A |--7L----------7--3--7--5-----------------3--2--5L---|
E |--5L----------5-----5--------------------------3L---|


----------------------------------------------------|
-----------------------------------------9b---------|
----------------------------------------------------|
-----5--4--------5--4-----7L----------7-------------|
--5--3--2--5-----3--2--5--7L----------7-------------|
--3--------3-----------3--5L----------5-------------|


----------------------------------------------------|
----------------------------------------------------|
-----------------------7----------------------------|
--7L----------7--5-----7-----------------5--4-------|
--7L----------7--3--7--5-----------------3--2--5L---|
--5L----------5-----5--------------------------3L---|


--------------------------------------------12s-----|
----------------------------------------------------|
----------------------------------------------------|
-----5--4-----------------7-------------------------|
--5--3--2--5-----3--2-----7-------------------------|
--3--------3-----------3--5-------------------------|


----------------------------------------------------|
----------------------------------------------------|
-----------------------7----------------------------|
--7L----------7--5-----7-----------------5--4-------|
--7L----------7--3--7--5-----------------3--2--5L---|
--5L----------5-----5--------------------------3L---|


----------------------------------------------------|
-----------------------------------------9b---------|
----------------------------------------------------|
-----5--4--------5--4-----7L----------7-------------|
--5--3--2--5-----3--2--5--7L----------7-------------|
--3--------3-----------3--5L----------5-------------|


----------------------------------------------------|
----------------------------------------------------|
-----------------------7----------------------------|
--7L----------7--5-----7-----------------5--4-------|
--7L----------7--3--7--5-----------------3--2--5L---|
--5L----------5-----5--------------------------3L---|


----------------------------------------------------|
----------------------------------------------------|
----------------------------------------------------|
-----5--4--------5--4-----------------7-------------|
--5--3--2--5-----3--2--5--------------7-------------|
--3--------3-----------3--5M-5M-5M-5M-5-----12s-----|


----------------------------------------------------|
----------------------------------------------------|
----------------------------------------------------|
----------------------------------------------------|
--7--------7--------7-----------7-----7--7----------|
--5--5M-5M-5--5M-5M-5--5M-5M-5M-5--5M-5--5--5M-5M---|


----------------------------------------------------|
----------------------------------------------------|
----------------------------------------------------|
----------------------------------------------------|
--7--------7--------7-----------7-----7--7-----5M---|
--5--5M-5M-5--5M-5M-5--5M-5M-5M-5--5M-5--5--8M------|


----------------------------------------------------|
----------------------------------------------------|
----------------------------------------------------|
--7--------7--------7-----------7-----7--7----------|
--5--5M-5M-5--5M-5M-5--5M-5M-5M-5--5M-5--5----------|
--------------------------------------------8M-5M---|


----------------------------------------------------|
----------------------------------------------------|
----------------------------------------------------|
----------------------------------------------------|
--7--------7--------7-----------7-----7--7----------|
--5--5M-5M-5--5M-5M-5--5M-5M-5M-5--5M-5--5--5M-5M---|


----------------------------------------------------|
----------------------------------------------------|
----------------------------------------------------|
----------------------------------------------------|
--7--------7--------7-----------7-----7--7----------|
--5--5M-5M-5--5M-5M-5--5M-5M-5M-5--5M-5--5--5M-5M---|


----------------------------------------------------|
----------------------------------------------------|
----------------------------------------------------|
----------------------------------------------------|
--7--------7--------7-----------7-----7--7-----5M---|
--5--5M-5M-5--5M-5M-5--5M-5M-5M-5--5M-5--5--8M------|


----------------------------------------------------|
----------------------------------------------------|
----------------------------------------------------|
--7--------7--------7-----------7-----7--7----------|
--5--5M-5M-5--5M-5M-5--5M-5M-5M-5--5M-5--5----------|
--------------------------------------------8M-5M---|


----------------------------------------------------|
----------------------------------------------------|
----------------------------------------------------|
----------------------------------------------------|
--7--------7--------7-----------7-----7--7----------|
--5--5M-5M-5--5M-5M-5--5M-5M-5M-5--5M-5--5--5M-5M---|


----------------------------------------------------|
----------------------------------------------------|
--7--------7--------7--------7--------7-----7-------|
--7--------7--------7--------7--------7-----7-------|
--5--------5--------5--------5--------5-----5-------|
----------------------------------------------------|


----------------------------------------------------|
----------------------------------------------------|
--------7-----------7-------------------------------|
--------7-----------7-----------3-----------3-------|
--5g-5g-5-----5g-5g-5-----------3-----------3-------|
--------------------------1g-1g-1-----1g-1g-1-------|


----------------------------------------------------|
----------------------------------------------------|
--------5-----------5-----------5-----------5-------|
--------5-----------5-----------5-----------5-------|
--3g-3g-3-----3g-3g-3-----3g-3g-3-----3g-3g-3-------|
----------------------------------------------------|


----------------------------------------------------|
----------------------------------------------------|
--------7-----------7-------------------------------|
--------7-----------7-----------3-----------3-------|
--5g-5g-5-----5g-5g-5-----------3-----------3-------|
--------------------------1g-1g-1-----1g-1g-1-------|


----------------------------------------------------|
----------------------------------------------------|
----------------------------------------------------|
--------5-----------5-----------5-----------5-------|
--------5-----------5-----------5-----------5-------|
--3g-3g-3-----3g-3g-3-----3g-3g-3-----3g-3g-3-------|


----------------------------------------------------|
----------------------------------------------------|
--------7-----------7-------------------------------|
--------7-----------7-----------3-----------3-------|
--5g-5g-5-----5g-5g-5-----------3-----------3-------|
--------------------------1g-1g-1-----1g-1g-1-------|


----------------------------------------------------|
----------------------------------------------------|
--------5-----------5-----------5-----------5-------|
--------5-----------5-----------5-----------5-------|
--3g-3g-3-----3g-3g-3-----3g-3g-3-----3g-3g-3-------|
----------------------------------------------------|


----------------------------------------------------|
----------------------------------------------------|
--------7-----------7-------------------------------|
--------7-----------7-----------3-----------3-------|
--5g-5g-5-----5g-5g-5-----------3-----------3-------|
--------------------------1g-1g-1-----1g-1g-1-------|


----------------------------------------------------|-------|----------------|
----------------------------------------------------|-------|----------------|
----------------------------------------------------|-------|----------------|
--------5-----------5-----3L------------------------|--3L---|--3-------------|
--------5-----------5-----3L------------------------|--3L---|--3-------------|
--3g-3g-3-----------3-----1L------------------------|--1L---|--1--------12s--|


----------------------------------------------------|
----------------------------------------------------|
-----------------------7----------------------------|
--7L----------7--5-----7-----------------5--4-------|
--7L----------7--3--7--5-----------------3--2--5L---|
--5L----------5-----5--------------------------3L---|


----------------------------------------------------|
----------------------------------------------------|
----------------------------------------------------|
-----5--4--------5--4-----7-------------------------|
--5--3--2--5-----3--2--5--7-------------------------|
--3--------3-----------3--5-------------------------|


----------------------------------------------------|
----------------------------------------------------|
-----------------------7----------------------------|
--7L----------7--5-----7-----------------5--4-------|
--7L----------7--3--7--5-----------------3--2--5L---|
--5L----------5-----5--------------------------3L---|


----------------------------------------------------|
----------------------------------------------------|
----------------------------------------------------|
-----5--4--------5--4-----7L----------7-------------|
--5--3--2--5-----3--2--5--7L----------7-------------|
--3--------3-----------3--5L----------5-----12s-----|


--------------------------------------------------------------------------------
--------------------------------------------------------------------------------
--------------------------------------------------------------------------------
--------------------------------------------------------------------------------
--0--0--0--0--3--0--0--0--0--0--5--0--0--0--0--0--3--0--0--0--5--0--0--0--3--0--
--------------------------------------------------------------------------------


--------------------|
--------------------|
--------------------|
--------------------|
5--0--3--0--0--0----|
--------------------|


--------------------------------------------------------------------------------
--------------------------------------------------------------------------------
--------------------------------------------------------------------------------
--------------------------------------------------------------------------------
--0--0--0--0--3--0--0--0--0--0--5--0--0--0--0--0--3--0--0--0--5--0--0--0--3--0--
--------------------------------------------------------------------------------


--------------------|
--------------------|
--------------------|
--------------------|
5--0--3--0--0--0----|
--------------------|


--------------------------------------------------------------------------------
--------------------------------------------------------------------------------
--------------------------------------------------------------------------------
--0--0--0--0--3--0--0--0--0--0--5--0--0--0--0--0--3--0--0--0--5--0--0--0--3--0--
--------------------------------------------------------------------------------
--------------------------------------------------------------------------------


--------------------|
--------------------|
--------------------|
5--0--3--0--0--0----|
--------------------|
--------------------|


--------------------------------------------------------------------------------
--------------------------------------------------------------------------------
--------------------------------------------------------------------------------
--------------------------------------------------------------------------------
--0--0--0--0--3--0--0--0--0--0--5--0--0--0--0--0--3--0--0--0--5--0--0--0--3--0--
--------------------------------------------------------------------------------


--------------------|
--------------------|
--------------------|
--------------------|
5--0--3--0--0--0----|
--------------------|


--------------------------------------------------------------------------------
--------------------------------------------------------------------------------
--------------------------------------------------------------------------------
--------------------------------------------------------------------------------
--0--0--0--0--3--0--0--0--0--0--5--0--0--0--0--0--3--0--0--0--5--0--0--0--3--0--
--------------------------------------------------------------------------------


--------------------|
--------------------|
--------------------|
--------------------|
5--0--3--0--0--0----|
--------------------|


--------------------------------------------------------------------------------
--------------------------------------------------------------------------------
--------------------------------------------------------------------------------
--------------------------------------------------------------------------------
--0--0--0--0--3--0--0--0--0--0--5--0--0--0--0--0--3--0--0--0--5--0--0--0--3--0--
--------------------------------------------------------------------------------


--------------------|
--------------------|
--------------------|
--------------------|
5--0--3--0--0--0----|
--------------------|


--------------------------------------------------------------------------------
--------------------------------------------------------------------------------
--------------------------------------------------------------------------------
--0--0--0--0--3--0--0--0--0--0--5--0--0--0--0--0--3--0--0--0--5--0--0--0--3--0--
--------------------------------------------------------------------------------
--------------------------------------------------------------------------------


--------------------|
--------------------|
--------------------|
5--0--3--0--0--0----|
--------------------|
--------------------|


--------------------------------------------------------------------------------
--------------------------------------------------------------------------------
--------------------------------------------------------------------------------
--------------------------------------------------------------------------------
--0--0--0--0--3--0--0--0--0--0--5--0--0--0--0--0--3--0--0--0--5--0--0--0--3--0--
--------------------------------------------------------------------------------


--------------------|----------------------------------------------------|
--------------------|----------------------------------------------------|
--------------------|--7--------7--------7--------7--------7-----7-------|
--------------------|--7--------7--------7--------7--------7-----7-------|
5--0--3--0--0--0----|--5--------5--------5--------5--------5-----5-------|
--------------------|----------------------------------------------------|


----------------------------------------------------|
----------------------------------------------------|
--------7-----------7-------------------------------|
--------7-----------7-----------3-----------3-------|
--5g-5g-5-----5g-5g-5-----------3-----------3-------|
--------------------------1g-1g-1-----1g-1g-1-------|


----------------------------------------------------|
----------------------------------------------------|
--------5-----------5-----------5-----------5-------|
--------5-----------5-----------5-----------5-------|
--3g-3g-3-----3g-3g-3-----3g-3g-3-----3g-3g-3-------|
----------------------------------------------------|


----------------------------------------------------|
----------------------------------------------------|
--------7-----------7-------------------------------|
--------7-----------7-----------3-----------3-------|
--5g-5g-5-----5g-5g-5-----------3-----------3-------|
--------------------------1g-1g-1-----1g-1g-1-------|


----------------------------------------------------|
----------------------------------------------------|
----------------------------------------------------|
--------5-----------5-----------5-----------5-------|
--------5-----------5-----------5-----------5-------|
--3g-3g-3-----3g-3g-3-----3g-3g-3-----3g-3g-3-------|


----------------------------------------------------|
----------------------------------------------------|
--------7-----------7-------------------------------|
--------7-----------7-----------3-----------3-------|
--5g-5g-5-----5g-5g-5-----------3-----------3-------|
--------------------------1g-1g-1-----1g-1g-1-------|


----------------------------------------------------|
----------------------------------------------------|
--------5-----------5-----------5-----------5-------|
--------5-----------5-----------5-----------5-------|
--3g-3g-3-----3g-3g-3-----3g-3g-3-----3g-3g-3-------|
----------------------------------------------------|


----------------------------------------------------|
----------------------------------------------------|
--------7-----------7-------------------------------|
--------7-----------7-----------3-----------3-------|
--5g-5g-5-----5g-5g-5-----------3-----------3-------|
--------------------------1g-1g-1-----1g-1g-1-------|


----------------------------|-------|----------|-------|
----------------------------|-------|----------|-------|
----------------------------|-------|----------|-------|
--5--------5--7L------------|--7L---|--7-------|-------|
--5--------5--7L------------|--7L---|--7-------|-------|
--3--------3--5L------------|--5L---|--5-------|-------|


----------------------------------------------------|
--8--------7--xM-xM-8--------7--xM-xM-8-----7-------|
----------------------------------------------------|
----------------------------------------------------|
----------------------------------------------------|
----------------------------------------------------|


----------------------------------------------------|
--6--------5--xM-xM-6--------5--xM-xM-6-----5-------|
----------------------------------------------------|
----------------------------------------------------|
----------------------------------------------------|
----------------------------------------------------|


----------------------------------------------------|
--8--------7--xM-xM-8--------7--xM-xM-8-----7-------|
----------------------------------------------------|
----------------------------------------------------|
----------------------------------------------------|
----------------------------------------------------|


----------------------------------------------------|
--6--------5--xM-xM-6--------5--xM-xM-6-----5-------|
----------------------------------------------------|
----------------------------------------------------|
----------------------------------------------------|
----------------------------------------------------|


----------------------------------------------------|
--8--------7--------8--------7--------8-----7-------|
----------------------------------------------------|
----------------------------------------------------|
----------------------------------------------------|
----------------------------------------------------|


----------------------------------------------------|
--6--------5--------6--------5--------6-----5-------|
----------------------------------------------------|
----------------------------------------------------|
----------------------------------------------------|
----------------------------------------------------|


----------------------------------------------------|
--8--------7--------8--------7--------8-----7-------|
----------------------------------------------------|
----------------------------------------------------|
----------------------------------------------------|
----------------------------------------------------|


----------------------------------------------------|
--6--------5--------6--------5--------6-----5-------|
----------------------------------------------------|
----------------------------------------------------|
----------------------------------------------------|
----------------------------------------------------|


----------------------------------------------------|
----------------------------------------------------|
--------7--------7--------7--------7--------7-------|
--7M-7M----7M-7M----7M-7M----7M-7M----7M-7M----7M---|
----------------------------------------------------|
----------------------------------------------------|


----------------------------------------------------|
----------------------------------------------------|
--------5--------5--------5--------5--------5-------|
--5M-5M----5M-5M----5M-5M----5M-5M----5M-5M----5M---|
----------------------------------------------------|
----------------------------------------------------|


----------------------------------------------------|
----------------------------------------------------|
--------7--------7--------7--------7--------7-------|
--7M-7M----7M-7M----7M-7M----7M-7M----7M-7M----7M---|
----------------------------------------------------|
----------------------------------------------------|


----------------------------------------------------|
----------------------------------------------------|
--------5--------5--------5--------5--------5-------|
--5M-5M----5M-5M----5M-5M----5M-5M----5M-5M----5M---|
----------------------------------------------------|
----------------------------------------------------|


----------------------------------------------------|
----------------------------------------------------|
--------7--------7--------7--------7--------7-------|
--7M-7M----7M-7M----7M-7M----7M-7M----7M-7M----7M---|
----------------------------------------------------|
----------------------------------------------------|


----------------------------------------------------|
----------------------------------------------------|
--------5--------5--------5--------5--------5-------|
--5M-5M----5M-5M----5M-5M----5M-5M----5M-5M----5M---|
----------------------------------------------------|
----------------------------------------------------|


----------------------------------------------------|
----------------------------------------------------|
--------7--------7--------7--------7--------7-------|
--7M-7M----7M-7M----7M-7M----7M-7M----7M-7M----7M---|
----------------------------------------------------|
----------------------------------------------------|


----------------------------------------------------|
----------------------------------------------------|
--------5--------5--------5--------5--------5-------|
--5M-5M----5M-5M----5M-5M----5M-5M----5M-5M----5M---|
----------------------------------------------------|
----------------------------------------------------|


----------------------------------------------------|
----------------------------------------------------|
----------------------------------------------------|
--2--------2--------2-----0--0--0-----0-----0--2----|
--2--------2--------2--------------2-----2----------|
--0--------0--------0-------------------------------|


----------------------------------------------------|
----------------------------------------------------|
----------------------------------------------------|
--2--------2--------2L----------------------2-------|
--2--------2--------2L----------------------2-------|
--0--------0--------0L----------------------0-------|


----------------------------------------------------|
----------------------------------------------------|
----------------------------------------------------|
--2--------2--------2-----0--0--0-----0-----2-------|
--2--------2--------2--------------2-----2----------|
--0--------0--------0-------------------------------|


----------------------------------------------------|
----------------------------------------------------|
----------------------------------------------------|
--2--------2--------2L----------------------2-------|
--2--------2--------2L----------------------2-------|
--0--------0--------0L----------------------0-------|


----------------------------------------------------|
----------------------------------------------------|
--------7-----------7-------------------------------|
--------7-----------7-----------3-----------3-------|
--5g-5g-5-----5g-5g-5-----------3-----------3-------|
--------------------------1g-1g-1-----1g-1g-1-------|


----------------------------------------------------|
----------------------------------------------------|
--------5-----------5-----------5-----------5-------|
--------5-----------5-----------5-----------5-------|
--3g-3g-3-----3g-3g-3-----3g-3g-3-----3g-3g-3-------|
----------------------------------------------------|


----------------------------------------------------|
----------------------------------------------------|
--------7-----------7-------------------------------|
--------7-----------7-----------3-----------3-------|
--5g-5g-5-----5g-5g-5-----------3-----------3-------|
--------------------------1g-1g-1-----1g-1g-1-------|


----------------------------------------------------|
----------------------------------------------------|
----------------------------------------------------|
--------5-----------5-----------5-----------5-------|
--------5-----------5-----------5-----------5-------|
--3g-3g-3-----3g-3g-3-----3g-3g-3-----3g-3g-3-------|


----------------------------------------------------|
----------------------------------------------------|
--------7-----------7-------------------------------|
--------7-----------7-----------3-----------3-------|
--5g-5g-5-----5g-5g-5-----------3-----------3-------|
--------------------------1g-1g-1-----1g-1g-1-------|


----------------------------------------------------|
----------------------------------------------------|
--------5-----------5-----------5-----------5-------|
--------5-----------5-----------5-----------5-------|
--3g-3g-3-----3g-3g-3-----3g-3g-3-----3g-3g-3-------|
----------------------------------------------------|


----------------------------------------------------|
----------------------------------------------------|
--------7-----------7-------------------------------|
--------7-----------7-----------3-----------3-------|
--5g-5g-5-----5g-5g-5-----------3-----------3-------|
--------------------------1g-1g-1-----1g-1g-1-------|


----------------------------|-------|----------------------------|-------|
----------------------------|-------|----------------------------|-------|
----------------------------|-------|-----------------7L---------|--7L---|
--5--------5--7L------------|--7L---|--7L----------7--7L---------|--7L---|
--5--------5--7L------------|--7L---|--7L----------7--5L---------|--5L---|
--3--------3--5L------------|--5L---|--5L----------5-------------|-------|


-------|-------|----------------||
-------|-------|----------------||
--7----|-------|--7s------------||
--7----|-------|--7s------------||
--5----|-------|--5s------------||
-------|-------|----------------||


Transpunerile de pe acest site reprezintă viziunea personală a utilizatorilor asupra pieselor.
fc79c3136bd3b861b546760c7d74e4af
f7e9d1d2-ebba-44ba-8198-e810bddf71a6