Cargo - Nu pot trai fara tine (GuitarPro)

Clean Solo



     E  E  E  Q    E  E  E       E  E  E  Q    E  E  E   
E||-----------0-------------|-------------0-------0-----|
B||-----3----------3-----3--|-------6----------------3--|
G||--------2----------2-----|--2g5-----5-------5--------|
D||--0----------------------|---------------------------|
A||-------------------------|---------------------------|
E||-------------------------|---------------------------|


  E  E  E  Q    E  E  E       E  E  E   Q    E  E  E   
-----------0-------------|----------------------------|
-----3----------3-----3--|-------6------8-------8-----|
--------2----------2-----|--2g5-----5S-------7-----7--|
--0----------------------|----------------------------|
-------------------------|----------------------------|
-------------------------|----------------------------|


  E  E  E  Q    E  E  E       E  E  E  Q    E  E  E     E  E  E  Q    E  E  E   
-----------0-------------|-------------0-------0-----|-----------0-------------|
-----3----------3-----3--|-------6----------------3--|-----3----------3-----3--|
--------2----------2-----|--2g5-----5-------5--------|--------3----------3-----|
--0----------------------|---------------------------|--3----------------------|
-------------------------|---------------------------|-------------------------|
-------------------------|---------------------------|-------------------------|


  E  E  E  Q    Q    E     E  E  E  Q    E  E  E       E  E  E  Q    E  E  E   
-----------0------------|-----------0-------------|-------------0-------0-----|
-----3------------------|-----3----------3-----3--|-------6----------------3--|
--------3---------------|--------2----------2-----|--2g5-----5-------5--------|
--3---------------------|--0----------------------|---------------------------|
------------------------|-------------------------|---------------------------|
------------------------|-------------------------|---------------------------|


  E  E  E  Q    E  E  E       E  E  E   Q    E  E  E   
-----------0-------------|----------------------------|
-----3----------3-----3--|-------6------8-------8-----|
--------2----------2-----|--2g5-----5S-------7-----7--|
--0----------------------|----------------------------|
-------------------------|----------------------------|
-------------------------|----------------------------|


  E  E  E  Q    E  E  E       E  E  E  Q    E  E  E     E  E  E  Q    E  E  E   
-----------0-------------|-------------0-------0-----|-----------0-------------|
-----3----------3-----3--|-------6----------------3--|-----3----------3-----3--|
--------2----------2-----|--2g5-----5-------5--------|--------3----------3-----|
--0----------------------|---------------------------|--3----------------------|
-------------------------|---------------------------|-------------------------|
-------------------------|---------------------------|-------------------------|


  W                   W                   W                   W                 
-------------------|-------------------|-------------------|-------------------|
-------------------|-------------------|-------------------|-------------------|
-------------------|-------------------|-------------------|-------------------|
-------------------|-------------------|-------------------|-------------------|
-------------------|-------------------|-------------------|-------------------|
-------------------|-------------------|-------------------|-------------------|


  W                   W                   W                   W                 
-------------------|-------------------|-------------------|-------------------|
-------------------|-------------------|-------------------|-------------------|
-------------------|-------------------|-------------------|-------------------|
-------------------|-------------------|-------------------|-------------------|
-------------------|-------------------|-------------------|-------------------|
-------------------|-------------------|-------------------|-------------------|


  W                   W                   W                   W                 
-------------------|-------------------|-------------------|-------------------|
-------------------|-------------------|-------------------|-------------------|
-------------------|-------------------|-------------------|-------------------|
-------------------|-------------------|-------------------|-------------------|
-------------------|-------------------|-------------------|-------------------|
-------------------|-------------------|-------------------|-------------------|


  W                   W                   W                   W                 
-------------------|-------------------|-------------------|-------------------|
-------------------|-------------------|-------------------|-------------------|
-------------------|-------------------|-------------------|-------------------|
-------------------|-------------------|-------------------|-------------------|
-------------------|-------------------|-------------------|-------------------|
-------------------|-------------------|-------------------|-------------------|


  W                   E  E  E  Q    E  E  E       E  E  E  Q    E  E  E   
-------------------|-----------0-------------|-------------0-------0-----|
-------------------|-----3----------3-----3--|-------6----------------3--|
-------------------|--------2----------2-----|--2g5-----5-------5--------|
-------------------|--0----------------------|---------------------------|
-------------------|-------------------------|---------------------------|
-------------------|-------------------------|---------------------------|


  E  E  E  Q    E  E  E       E  E  E   Q    E  E  E   
-----------0-------------|----------------------------|
-----3----------3-----3--|-------6------8-------8-----|
--------2----------2-----|--2g5-----5S-------7-----7--|
--0----------------------|----------------------------|
-------------------------|----------------------------|
-------------------------|----------------------------|


  E  E  E  Q    E  E  E       E  E  E  Q    E  E  E     E  E  E  Q    E  E  E   
-----------0-------------|-------------0-------0-----|-----------0-------------|
-----3----------3-----3--|-------6----------------3--|-----3----------3-----3--|
--------2----------2-----|--2g5-----5-------5--------|--------3----------3-----|
--0----------------------|---------------------------|--3----------------------|
-------------------------|---------------------------|-------------------------|
-------------------------|---------------------------|-------------------------|


-----|-----|-----|-----|-----|-----|-----|-----|-----|-----|-----|-----|-----|
-----|-----|-----|-----|-----|-----|-----|-----|-----|-----|-----|-----|-----|
-----|-----|-----|-----|-----|-----|-----|-----|-----|-----|-----|-----|-----|
-----|-----|-----|-----|-----|-----|-----|-----|-----|-----|-----|-----|-----|
-----|-----|-----|-----|-----|-----|-----|-----|-----|-----|-----|-----|-----|
-----|-----|-----|-----|-----|-----|-----|-----|-----|-----|-----|-----|-----|


                          E  E  E  Q    E  E  E       E  E  E  Q    E  E  E   
-----|-----|-----|-----|-----------0-------------|-------------0-------0-----|
-----|-----|-----|-----|-----3----------3-----3--|-------6----------------3--|
-----|-----|-----|-----|--------2----------2-----|--2g5-----5-------5--------|
-----|-----|-----|-----|--0----------------------|---------------------------|
-----|-----|-----|-----|-------------------------|---------------------------|
-----|-----|-----|-----|-------------------------|---------------------------|


  E  E  E  Q    E  E  E       E  E  E   Q    E  E  E   
-----------0-------------|----------------------------|
-----3----------3-----3--|-------6------8-------8-----|
--------2----------2-----|--2g5-----5S-------7-----7--|
--0----------------------|----------------------------|
-------------------------|----------------------------|
-------------------------|----------------------------|


  E  E  E  Q    E  E  E       E  E  E  Q    E  E  E     E  E  E  Q    E  E  E   
-----------0-------------|-------------0-------0-----|-----------0-------------|
-----3----------3-----3--|-------6----------------3--|-----3----------3-----3--|
--------2----------2-----|--2g5-----5-------5--------|--------3----------3-----|
--0----------------------|---------------------------|--3----------------------|
-------------------------|---------------------------|-------------------------|
-------------------------|---------------------------|-------------------------|


  Q    E   H          E      W                   E   E   E   Q     E  Q     
-------------------------|--------------------|----------------------------|
----------13b---------L--|---L----------------|-----13--15--15----13-------|
-------------------------|--------------------|----------------------------|
-------------------------|--------------------|----------------------------|
-------------------------|--------------------|----------------------------|
-------------------------|--------------------|----------------------------|


  Q     E   Q        E  E   E      E   E   E      Q    Q    E   
-------13--12----12g13---------|----------13-------------------|
---------------------------15--|---L--13------14g15------------|
-------------------------------|-------------------------------|
-------------------------------|-------------------------------|
-------------------------------|-------------------------------|
-------------------------------|-------------------------------|


  Q     Q         S S  Q     E     Q        E   Q     E   E   E   
-------17S----13g15---15----13--|-------17g15--13----12--13--12--|
--------------------------------|--------------------------------|
--------------------------------|--------------------------------|
--------------------------------|--------------------------------|
--------------------------------|--------------------------------|
--------------------------------|--------------------------------|


                                           |--3--|                             
   E   S  S  S  S  S  S  S  S  S  S  S  S  S  S  S     H         E   E  E  E   
------13-12----12-------13-12-------12-13----------|--15b---------------------|
--15--------15----13-15-------13-15-------13-15-13-|--------------------------|
---------------------------------------------------|-----------------9-----7--|
---------------------------------------------------|----------------10-----7--|
---------------------------------------------------|----------------10-----5--|
---------------------------------------------------|-----------------8--------|


  E  E  E  E  E  E  E  E     E  E  E  E  E  E  E  E   
--------------------------|--------------------------|
--------------------------|--------------------------|
--L--7--7--7--7--7--7--7--|--7--7--7--7--7--------7--|
--L--7--7--7--7--7--7--7--|--7--7--7--7--7--------7--|
--L--5--5--5--5--5--5--5--|--5--5--5--5--5--------5--|
--------------------------|-----------------5--8-----|


  E  E  E  E  E  E  E  E      Q    E   Q    E  E  E   
--------------------------|--------------------------|
--------------------------|--------------------------|
--L--7--7--7--7--7--7--7--|--10-------12----------7--|
--L--7--7--7--7--7--7--7--|--10-------12----------7--|
--L--5--5--5--5--5--5--5--|---8-------10----------5--|
--------------------------|-----------------5--8-----|


  E  E  E  E  E  E  E  E      Q     E   Q     E  E  E   
--------------------------|----------------------------|
--------------------------|----------------------------|
--L--7--7--7--7--7--7--7--|--10----10---9-----9-----7--|
--L--7--7--7--7--7--7--7--|--10----10--10----10-----8--|
--L--5--5--5--5--5--5--5--|---8-----8--10----10-----8--|
--------------------------|----------------------6-----|


  E  E  E  E  E  E  E  E     W                   E  E  E  Q    E  E  E   
--------------------------|-------------------|-----------0-------------|
--------------------------|-------------------|-----3----------3-----3--|
--L--7--7--7--7--7--7--7--|-------------------|--------2----------2-----|
--L--8--8--8--8--8--8--8--|-------------------|--0----------------------|
--L--8--8--8--8--8--8--8--|-------------------|-------------------------|
--------------------------|-------------------|-------------------------|


    E  E  E  Q    E  E  E     E  E  E  Q    E  E  E   
-------------0-------0-----|-----------0-------------|
-------6----------------3--|-----3----------3-----3--|
--2g5-----5-------5--------|--------2----------2-----|
---------------------------|--0----------------------|
---------------------------|-------------------------|
---------------------------|-------------------------|


    E  E  E   Q    E  E  E     E  E  E  Q    E  E  E   
----------------------------|-----------0-------------|
-------6------8-------8-----|-----3----------3-----3--|
--2g5-----5S-------7-----7--|--------2----------2-----|
----------------------------|--0----------------------|
----------------------------|-------------------------|
----------------------------|-------------------------|


    E  E  E  Q    E  E  E     E  E  E  Q    E  E  E     W                 
-------------0-------0-----|-----------0-------------|-------------------|
-------6----------------3--|-----3----------3-----3--|-------------------|
--2g5-----5-------5--------|--------3----------3-----|-------------------|
---------------------------|--3----------------------|-------------------|
---------------------------|-------------------------|-------------------|
---------------------------|-------------------------|-------------------|


  E  E  E  Q    E  E  E       E  E  E  Q    E  E  E     E  E  E  Q    E  E  E   
-----------0-------------|-------------0-------0-----|-----------0-------------|
-----3----------3-----3--|-------6----------------3--|-----3----------3-----3--|
--------2----------2-----|--2g5-----5-------5--------|--------2----------2-----|
--0----------------------|---------------------------|--0----------------------|
-------------------------|---------------------------|-------------------------|
-------------------------|---------------------------|-------------------------|


    E  E  E   Q    E  E  E     E  E  E  Q    E  E  E   
----------------------------|-----------0-------------|
-------6------8-------8-----|-----3----------3-----3--|
--2g5-----5S-------7-----7--|--------2----------2-----|
----------------------------|--0----------------------|
----------------------------|-------------------------|
----------------------------|-------------------------|


    E  E  E  Q    E  E  E     E  E  E  Q    E  E  E    
-------------0-------0-----|-----------0-------------||
-------6----------------3--|-----3----------3-----3--||
--2g5-----5-------5--------|--------3----------3-----||
---------------------------|--3----------------------||
---------------------------|-------------------------||
---------------------------|-------------------------||

  • remy remy
    31 august 2011 18:34
    explca-mi si mie te rog cum faci 2g5 adica la ce se refera
37019eda21143ca5b0184b2b8f4aded4