Cargo - Ploaia (solo intro)

     Q     Q     Q     Q        Q    Q     Q     Q        Q     Q     
E||--0----12----------------|-------------------------|--------------|
B||-------------15----13----|--15---------13----15----|--13----12----|
G||-------------------------|-------------------------|--------------|
D||-------------------------|-------------------------|--------------|
A||-------------------------|-------------------------|--------------|
E||-------------------------|-------------------------|--------------|


  Q     Q     Q     Q        Q    Q     Q     Q        Q     Q     Q    Q     
--0----12----------------|-------------------------|--------------------0----|
-------------15----13----|--15---------13----12----|--13----12----10---------|
-------------------------|-------------------------|-------------------------|
-------------------------|-------------------------|-------------------------|
-------------------------|-------------------------|-------------------------|
-------------------------|-------------------------|-------------------------|


   Q     Q     Q     Q                Q     Q     Q     Q             
--12----------------------|-------|--------------------------|-------|
--------15----13----15----|-------|--13----15----13----12----|-------|
--------------------------|-------|--------------------------|-------|
--------------------------|-------|--------------------------|-------|
--------------------------|-------|--------------------------|-------|
--------------------------|-------|--------------------------|-------|


   Q     Q     Q    Q        Q         
-------------------------|--------|
--10----12----10----8----|--10----|
-------------------------|--------|
-------------------------|--------|
-------------------------|--------|
-------------------------|--------|
6Ld5REUUAAAAAA1PBEDya2BDGnf5rYKeKnmYm4Cz
a28a035f11ea6ff25af2a47cc541d63f