Cargo - Toamna

  • Contribuție:  sorinmisu
  • Ultima actualizare: 16.11.2010
Toamna                                      


                                                                           Cargo
Track 1



      Q    Q    Q    E   E      W                   Q    H.             
E||--------------------------|-------------------|---------------------|
B||--------------------------|-------------------|---------------------|
G||--------------------------|-------------------|--7------------------|
D||--------5----7----7s--9~--|--L----------------|-------7~------------|
A||--/5----------------------|-------------------|---------------------|
E||--------------------------|-------------------|---------------------|


  S  S  E   E  E   H            H        Q    Q        W                 
-----------------------------|----------------------|-------------------|
-----------------------------|----------------------|-------------------|
-----------------------------|----------------------|-------------------|
--7h-9p-7s--5--5s--7~--------|--L-------------------|-------------------|
-----------------------------|-----------5----5~----|--L----------------|
-----------------------------|----------------------|-------------------|


  Q    Q    Q    E   E      W                   Q    H.             
-------------------------|-------------------|---------------------|
-------------------------|-------------------|---------------------|
-------------------------|-------------------|--7------------------|
-------5----7----7s--9~--|--L----------------|-------7~------------|
--5----------------------|-------------------|---------------------|
-------------------------|-------------------|---------------------|


  S  S  E   E  E   H            W                    Q    Q     Q     S   E.    
-----------------------------|-------------------|-----------------------------|
-----------------------------|-------------------|-----------------------------|
-----------------------------|-------------------|--/7----9----11----11s-12~---|
--7h-9p-7s--5--5s--7~--------|--L----------------|-----------------------------|
-----------------------------|-------------------|-----------------------------|
-----------------------------|-------------------|-----------------------------|


  W                    Q     H.               Q    Q    H          
-------------------|-----------------------|----------------------|
-------------------|-----------------------|----------------------|
--L----------------|--12----11~------------|--L----7----7~--------|
-------------------|-----------------------|----------------------|
-------------------|-----------------------|----------------------|
-------------------|-----------------------|----------------------|


  W                    Q    Q    Q    E   E      W                 
-------------------|--------------------------|-------------------|
-------------------|--------------------------|-------------------|
--L----------------|--------------------------|-------------------|
-------------------|--------5----7----7s--9~--|--L----------------|
-------------------|--/5----------------------|-------------------|
-------------------|--------------------------|-------------------|


  Q    H.               Q     Q    H            W                 
---------------------|-----------------------|-------------------|
---------------------|-----------------------|-------------------|
--7------------------|-----------------------|-------------------|
-------7~------------|--L----/5----5~--------|--L----------------|
---------------------|-----------------------|-------------------|
---------------------|-----------------------|-------------------|


   Q    Q    Q    E   E      W                   Q    H.             
--------------------------|-------------------|---------------------|
--------------------------|-------------------|---------------------|
--------------------------|-------------------|--7------------------|
--------5----7----7s--9~--|--L----------------|-------7~------------|
--/5----------------------|-------------------|---------------------|
--------------------------|-------------------|---------------------|


  S  S  E   E  E   H            H        Q    Q        W                 
-----------------------------|----------------------|-------------------|
-----------------------------|----------------------|-------------------|
-----------------------------|----------------------|-------------------|
--7h-9p-7s--5--5s--7~--------|--L-------------------|-------------------|
-----------------------------|-----------5----5~----|--L----------------|
-----------------------------|----------------------|-------------------|


   Q    Q    Q    E   E      W                   Q    H.             
--------------------------|-------------------|---------------------|
--------------------------|-------------------|---------------------|
--------------------------|-------------------|--7------------------|
--------5----7----7s--9~--|--L----------------|-------7~------------|
--/5----------------------|-------------------|---------------------|
--------------------------|-------------------|---------------------|


  S  S  E   E  E   H            W                    Q    Q     Q     S   E.    
-----------------------------|-------------------|-----------------------------|
-----------------------------|-------------------|-----------------------------|
-----------------------------|-------------------|--/7----9----11----11s-12~---|
--7h-9p-7s--5--5s--7~--------|--L----------------|-----------------------------|
-----------------------------|-------------------|-----------------------------|
-----------------------------|-------------------|-----------------------------|


  W                    Q     H.               Q    Q    H          
-------------------|-----------------------|----------------------|
-------------------|-----------------------|----------------------|
--L----------------|--12----11~------------|--L----7----7~--------|
-------------------|-----------------------|----------------------|
-------------------|-----------------------|----------------------|
-------------------|-----------------------|----------------------|


  W                    Q    Q    Q    E   E      W                 
-------------------|--------------------------|-------------------|
-------------------|--------------------------|-------------------|
--L----------------|--------------------------|-------------------|
-------------------|--------5----7----7s--9~--|--L----------------|
-------------------|--/5----------------------|-------------------|
-------------------|--------------------------|-------------------|


  Q    H.               Q     Q    H            W                 
---------------------|-----------------------|-------------------|
---------------------|-----------------------|-------------------|
--7------------------|-----------------------|-------------------|
-------7~------------|--L----/5----5~--------|--L----------------|
---------------------|-----------------------|-------------------|
---------------------|-----------------------|-------------------|


   NU sunt prea sigur de solo                              
   S.                         S.  S.  S. H          S   S  
----------------------------------------------------------|
---------------------------------------------------10s-12-|
--12p------------------------11h-12p-11s-9~---------------|
----------------------------------------------------------|
----------------------------------------------------------|
----------------------------------------------------------|


  H         E    E    E   E      E   Q     Q     Q     E    
-----------------------------|-----------------------------|
--L~--------8S--10S--12--13--|---L--12---------------------|
-----------------------------|------------14----12----11~--|
-----------------------------|-----------------------------|
-----------------------------|-----------------------------|
-----------------------------|-----------------------------|


   W                    S.  S.  S.  S. H          S   S  
--------------------|-----------------------------------|
--------------------|----------------------------10s-12-|
---L----------------|--12p-11h-12p-11s-9~---------------|
--------------------|-----------------------------------|
--------------------|-----------------------------------|
--------------------|-----------------------------------|


  H         E    E    E   E      E   Q      Q      Q      E   
-----------------------------|-------------------------------|
--L~--------8S--10S--12--13--|---L--12S----13S----15S----17--|
-----------------------------|-------------------------------|
-----------------------------|-------------------------------|
-----------------------------|-------------------------------|
-----------------------------|-------------------------------|


  W                     Q    Q    Q    E   E      W                 
--------------------|--------------------------|-------------------|
--L~----------------|--------------------------|-------------------|
--------------------|--------------------------|-------------------|
--------------------|--------5----7----7s--9~--|--L----------------|
--------------------|--/5----------------------|-------------------|
--------------------|--------------------------|-------------------|


  Q    H.               S  S  E   E  E   H            H        Q    Q      
---------------------|-----------------------------|----------------------|
---------------------|-----------------------------|----------------------|
--7------------------|-----------------------------|----------------------|
-------7~------------|--7h-9p-7s--5--5s--7~--------|--L-------------------|
---------------------|-----------------------------|-----------5----5~----|
---------------------|-----------------------------|----------------------|


  W                   Q    Q    Q    E   E      W                 
-------------------|-------------------------|-------------------|
-------------------|-------------------------|-------------------|
-------------------|-------------------------|-------------------|
-------------------|-------5----7----7s--9~--|--L----------------|
--L----------------|--5----------------------|-------------------|
-------------------|-------------------------|-------------------|


  Q    H.               S  S  E   E  E   H            W                 
---------------------|-----------------------------|-------------------|
---------------------|-----------------------------|-------------------|
--7------------------|-----------------------------|-------------------|
-------7~------------|--7h-9p-7s--5--5s--7~--------|--L----------------|
---------------------|-----------------------------|-------------------|
---------------------|-----------------------------|-------------------|


   Q    Q     Q     S   E.      W                    Q     H.             
-----------------------------|-------------------|-----------------------|
-----------------------------|-------------------|-----------------------|
--/7----9----11----11s-12~---|--L----------------|--12----11~------------|
-----------------------------|-------------------|-----------------------|
-----------------------------|-------------------|-----------------------|
-----------------------------|-------------------|-----------------------|


  Q    Q    H            W                    Q    Q    Q    E   E    
----------------------|-------------------|--------------------------|
----------------------|-------------------|--------------------------|
--L----7----7~--------|--L----------------|--------------------------|
----------------------|-------------------|--------5----7----7s--9~--|
----------------------|-------------------|--/5----------------------|
----------------------|-------------------|--------------------------|


  W                   Q    H.               Q     Q    H          
-------------------|---------------------|-----------------------|
-------------------|---------------------|-----------------------|
-------------------|--7------------------|-----------------------|
--L----------------|-------7~------------|--L----/5----5~--------|
-------------------|---------------------|-----------------------|
-------------------|---------------------|-----------------------|


  W                  
-------------------||
-------------------||
-------------------||
--L----------------||
-------------------||
-------------------||




Duration Legend
---------------
L - Nota precedenta este lungita pe durata notata deasupra portativului
W - whole
H - half
Q - quarter
E - 8th
S - 16th
T - 32nd
X - 64th
. - note dotted
|-n-|  - n-tuplets
76ba93c5c5ca97e93abfa68dfcea7355