Cargo - Ziua vrajitoarelor

  • (34 voturi)
  • Contribuție:  anonim75
 [_Legenda_]
   h - lovire cu degetul mainii stangi (hammer-on)
   p - ciupire cu degetul mainii stangi 
   (pull-off - invers decat hammer-on)
   x - sunet inabusit cu mana stanga
   ~ - vibrato
   \ - alunecare in jos (slide)
   / - alunecare in sus
   VII... - bareu in poz. VII
 
 [_Acorduri_]
   E5 022xxx (aici x inseamna ca coarda respectiva nu se actioneaza)
   F5 133xxx
   G5 355xxx
   A5 577xxx
   D5 x577xx sau 10 12 12 x x x
 
 
I.[_Intro_]
 
Chitara bass:
G---4-----4-----4-|--4-------0-----|--4-----4-----4-|--4-------0-----
D-2---2-2---2-2---|----2-2-3---3-0-|2---2-2---2-2---|----2-2-3---3-0-
A-----------------|----------------|----------------|----------------
E-----------------|----------------|----------------|----------------
 
 
G---4-----4-----4-|--4-------0-----|--4-----4-------|0-----------0---
D-2---2-2---2-2---|----2-2-3---3-0-|2---2-2---2-2-2-|--2-----3-0---0-
A-----------------|----------------|----------------|----2-----------
E-----------------|----------------|----------------|------0---------
 
Chitara cu distorsiune:
                                    E5                         F5
e-----------------|----------------|----------------|----------------
B-----------------|----------------|----------------|----------------
G-----------------|----------------|----------------|----------------
D-----------------|----------------|2-x-------------|----------3-----
A-----------------|----------------|2-x-------------|----------3-----
E-----------------|----------------|0-x-------------|----------1-----
  E5                                E5
e-----------------|----------------|----------------|7~~~~~~~~~~~~~~~
B-----------------|----------------|----------------|----------------
G-----------------|----------------|----------------|----------------
D-2-x-------------|----------------|2-x-------------|----------------
A-2-x-------------|----------------|2-x-------------|----------------
E-0-x-------------|----------------|0-x-------------|----------------
 
-------------------
II.
 
de 2 ori:
  E5                         F5 E5 F5                           F5 E5 F5
e-----------------|----------------|----------------|----------------
B-----------------|----------------|----------------|----------------
G-----------------|----------------|----------------|----------------
D-2---2---2---x-2-|--2---x-2-3\2/3-|2---x-x-2---x-2-|--2---x-2-3\2/3-
A-2---2---2---x-2-|--2---x-2-3\2/3-|2---x-x-2---x-2-|--2---x-2-3\2/3-
E-0---0---0---x-0-|--0---x-0-1-----|0---x-x-0---x-0-|--0---x-0-1-----
 
a 3-a oara:
  E5                         F5 E5 F5
e-----------------|----------------|----------------|----------------
B-----------------|----------------|----------------|----------------
G-----------------|----------------|----------------|----------------
D-2---2---2---x-2-|--2---x-2-3\2/3-|2---x-x-2---x-2-|----------------
A-2---2---2---x-2-|--2---x-2-3\2/3-|2---x-x-2---x-2-|----------------
E-0---0---0---x-0-|--0---x-0-1-----|0---x-x-0---x-0-|----------------
 
-------------------
 
III.
 
Chitara solo:
 
de 2 ori:
e-----------------|----------------|5-----5---5-----|----------------
B-5-----5---5---5-|8-----8---8-7-8-|------------8-7-|8-----7---5-----
G-------------7---|----------------|----------------|----------------
D-----------------|----------------|----------------|----------------
A-----------------|----------------|----------------|----------------
E-----------------|----------------|----------------|----------------
 
de 2 ori:
e-7-----7---7-5---|5-----5---5-----|5-----5---------|5---------------
B---------------8-|------------8-7-|--------7-5-7-8-|------8p7-5-----
G-----------------|----------------|----------------|----------------
D-----------------|----------------|----------------|----------------
A-----------------|----------------|----------------|----------------
E-----------------|----------------|----------------|----------------
 
 sau, cu bareu in poz.VII (Em) - asa mi se pare mai usor:
 
de 2 ori:
  VII................................................................
e-----------------|----------------|----------------|----------------
B-----------------|8-----8---8p7-8-|10---10--10p8p7-|8-----7---------
G-9-----9---9p7-9-|----------------|----------------|----------9-----
D-----------------|----------------|----------------|----------------
A-----------------|----------------|----------------|----------------
E-----------------|----------------|----------------|----------------
 
de 2 ori:
  VII................................................................
e-7-----7---7-----|----------------|----------------|----------------
B------------10p8-|10---10--10p8p7-|10---10p7---7h8-|10----8p7-------
G-----------------|----------------|----------9-----|----------9-----
D-----------------|----------------|----------------|----------------
A-----------------|----------------|----------------|----------------
E-----------------|----------------|----------------|----------------
 
Chitara cu distorsiune (in fundal):
  E5
e-----------------|----------------|----------------|----------------
B-----------------|----------------|----------------|----------------
G-----------------|----------------|----------------|----------------
D-2---2---2---x-2-|--x-2-x-2---x-x-|2---2---2---x-2-|--x-2-x-2---x-x-
A-2---2---2---x-2-|--x-2-x-2---x-x-|2---2---2---x-2-|--x-2-x-2---x-x-
E-0---0---0---x-0-|--x-0-x-0---x-x-|0---0---0---x-0-|--x-0-x-0---x-x-
 
-------------------
IV. Refren:
 
Chitara cu distorsiune:
  G5               A5               E5
e-----------------|----------------|----------------|----------------
B-----------------|----------------|----------------|----------------
G-----------------|----------------|----------------|----------------
D-5-----------/---|7-----------\---|x-x-----x---2-x-|--2-x---2-x---x-
A-5-----------/---|7-----------\---|x-x-----x---2-x-|--2-x---2-x---x-
E-3-----------/---|5-----------\---|x-x-----x---0-x-|--0-x---0-x---x-
 
  G5               A5               E5
e-----------------|----------------|----------------|----------------
B-----------------|----------------|----------------|----------------
G-----------------|----------------|----------------|----------------
D-5-----------/---|7-----------\---|x-x-----x---2-x-|--2-x---2-x---x-
A-5-----------/---|7-----------\---|x-x-----x---2-x-|--2-x---2-x---x-
E-3-----------/---|5-----------\---|x-x-----x---0-x-|--0-x---0-x---x-
 
  G5               A5               D5               C5
e-----------------|----------------|----------------|----------------
B-----------------|----------------|----------------|----------------
G-----------------|----------------|----------------|----------------
D-5-----------/---|7-----------/---|12----------\---|10--------------
A-5-----------/---|7-----------/---|12----------\---|10--------------
E-3-----------/---|5-----------/---|10----------\---|8---------------
 
  G5               A5               D5
e-----------------|----------------|----------------|----------------
B-----------------|----------------|----------------|----------------
G-----------------|----------------|----------------|----------------
D-5-----------/---|7-----------/---|12--------------|----------------
A-5-----------/---|7-----------/---|12--------------|----------------
E-3-----------/---|5-----------/---|10--------------|----------------
 
-------------------
In final, secventa III, cu ultimele 4 masuri astfel:
 
Chitara solo:
                                       pauza; mai rar
e-7-----7---7-5---|5-----5---5-----|5---------------|5---------------
B---------------8-|------------8-7-|----------5-7-8-|------8p7-5-----
G-----------------|----------------|----------------|----------------
D-----------------|----------------|----------------|----------------
A-----------------|----------------|----------------|----------------
E-----------------|----------------|----------------|----------------
 
 sau, cu bareu in poz.VII:
  VII................................................................
e-7-----7---7-----|----------------|----------------|----------------
B------------10p8-|10---10--10p8p7-|10----------7h8-|10----8p7-------
G-----------------|----------------|----------9-----|----------9-----
D-----------------|----------------|----------------|----------------
A-----------------|----------------|----------------|----------------
E-----------------|----------------|----------------|----------------
 
 
Chitara cu distorsiune (in fundal):
  E5
e-----------------|----------------|----------------|----------------
B-----------------|----------------|----------------|----------------
G-----------------|----------------|----------------|----------------
D-2---2---2---x-2-|--x-2-x-2---x-x-|12--12----------|----------------
A-2---2---2---x-2-|--x-2-x-2---x-x-|12--12----------|----------------
E-0---0---0---x-0-|--x-0-x-0---x-x-|10--10----------|----------------
  • adrian1994
    23 decembrie 2018 19:19
    ce setari sunt la amplificator
  • irava
    1 februarie 2016 14:01
    ce setari sunt la amplificator cu trable bass si midle va rog
  • puscasuu
    10 aprilie 2015 12:54
    Multumesc!
9ed2a1c4ecc04aaf89071cd93ea7f1de