Cargo - Ziua vrajitoarelor

  • (4 voturi)
  • Contribuție:  vladu
  • Ultima actualizare: 30.05.2008
chitara ritm:
e|------------------------------------------------------------|
b|------------------------------------------------------------|
g|------------------------------------------------------------|
d|--2--2--2---2-2-----3-2-3---2-------2-----2---2-------3-2-3-|
a|--2--2--2---2-2-----3-2-3---2-------2-----2---2-------3-2-3-|
e|--0--0--0-0-0-0-0-0-1-0-1---0-0-0-0-0-0-0-0-0-0-0-0-0-1-0-1-|

chitara solo:
e|----------------------------------------------
b|--5-5-5-5-8-8--8-7-8-8s10-10--10-8-7-8-7-5-8--
g|-------7--------------------------------------

e|----------------------------------------------
b|--5-5-5-5-8-8--8-7-8-8s10-10--10-8-7-8-7-5-5--
g|-------7--------------------------------------

e|--7-7-7-5-5-5--5-8-7-8s10-10--10-8-7-8-7-5-8--
b|---------8------------------------------------
g|----------------------------------------------

e|--7-7-7-5-5-5--5-8-7-8s10-10--10-8-7-8-7-5-5--
b|---------8------------------------------------
g|----------------------------------------------

chitara solo-strofa:

e|---------------------------|
b|---------------------------|se repeta pe parcursul strofelor
g|-----9-9---9-9-9~-----7-9--|
d|----9-9-9-----------9------|
a|--7-------7-------7--------|
e|---------------------------|
      OoooOoo ai un mare noroc
e|---------------------------------------------------
b|---------------------------------------------------
g|---------------------------------------------------
d|----7---9-------------------2-2--2-2--2-2--2--2--2-
a|----7---9-------------------2-2--2-2--2-2--2--2--2-
e|----5---7-------------------0-0--0-0--0-0--0--0--0-

    da ceva sa nu crezi ca asa ti-e soarta/poti sa-ntrebi daca vrei 

d|--7----9--------9--------7---------------7-------9-----------9-----
a|--7----9--------7--------5---------------7-------9-----------7-----
e|--5----7--------7--------5---------------5-------7-----------7-----