Cargo - Ziua vrajitoarelor

Tempo = 70
Electric Guitar solo

Legenda
L - legato
h - hammer on/pull off
s - slide
~ - vibrato

-----------------------------------------------5L---|
--5s----5~----5-----5s-8--------8~----8h-7h-8-------|
-----------------7----------------------------------|
----------------------------------------------------|
----------------------------------------------------|
----------------------------------------------------|


--5-----------------------5-----------------------5-----------------------------
--------------------------------------------------------------8h----------7h----
--------------------------------------------------------------------------------
--------------------------------------------------------------------------------
--------------------------------------------------------------------------------
--------------------------------------------------------------------------------


--------------------------------------------------------------------------------
------8h----------------------------------7h----8h----7--------5L---------------
--------------------------------------------------------------------------------
--------------------------------------------------------------------------------
--------------------------------------------------------------------------------
--------------------------------------------------------------------------------


------------------------------------|
-------5L-5L----------5~------------|
------------------------------------|
------------------------------------|
------------------------------------|
------------------------------------|


-----------------------------------------------5L---|
--5s----5~----5-----5s-8--------8~----8h-7h-8-------|
-----------------7----------------------------------|
----------------------------------------------------|
----------------------------------------------------|
----------------------------------------------------|


--5-----------------------5-----------------------5-----------------------------
--------------------------------------------------------------8h----------7h----
--------------------------------------------------------------------------------
--------------------------------------------------------------------------------
--------------------------------------------------------------------------------
--------------------------------------------------------------------------------


--------------------------------------------------------------------------------
------8h----------------------------------7h----8h----7--------5L---------------
--------------------------------------------------------------------------------
--------------------------------------------------------------------------------
--------------------------------------------------------------------------------
--------------------------------------------------------------------------------


------------------------------------|
-------5L-5L----------5~------------|
------------------------------------|
------------------------------------|
------------------------------------|
------------------------------------|


--7s----7~----7h-5--------5-----5-----5-------------|
--------------------8--------------------8h-7-------|
----------------------------------------------------|
----------------------------------------------------|
----------------------------------------------------|
----------------------------------------------------|


--5-----------5-----------------------------------5-----------------------------
--------------------------7h----5h-7h-8-----------------8h----7-----5L----------
--------------------------------------------------------------------------------
--------------------------------------------------------------------------------
--------------------------------------------------------------------------------
--------------------------------------------------------------------------------


--------------------|--7s----7~----7h-5--------5-----5-----5-------------|
------5~------------|--------------------8--------------------8h-7-------|
--------------------|----------------------------------------------------|
--------------------|----------------------------------------------------|
--------------------|----------------------------------------------------|
--------------------|----------------------------------------------------|


--5-----------5-----------------------------------5-----------------------------
--------------------------7h----5h-7h-8-----------------8h----7-----5L----------
--------------------------------------------------------------------------------
--------------------------------------------------------------------------------
--------------------------------------------------------------------------------
--------------------------------------------------------------------------------


--------------------|----------------------------------------------------|
------5L------------|--5~------------------------------------------------|
--------------------|----------------------------------------------------|
--------------------|----------------------------------------------------|
--------------------|----------------------------------------------------|
--------------------|----------------------------------------------------|
6Ld5REUUAAAAAA1PBEDya2BDGnf5rYKeKnmYm4Cz
3f62d9f0319ff5f7909df04ca223a885