Carla's Dreams - Acele

  • (2 voturi)
  • Contribuție:  LaurLaur
  • Ultima actualizare: 22.05.2016
Intro&verse
E-------------------------------------------------------------
B-------------------------------------------------------------
G----9-9-9-9-9---12-12-12-12-14--11-11-11-11-11---7-7-7-7-8---
D-------------------------------------------------------------
A-------------------------------------------------------------
E----8-8-8-8-8---12-12-12-12-12--10-10-10-10-10---7-7-7-7-7---


Ritmul ciupiturii il deduceti din melodie.


Pre-chorus: (Si mai am amintiri....etc) :C5,E5,D5,C5 
E------------------------------------------
B------------------------------------------
G--------9------7-----5--------------------
D-10-----9------7-----5--------------------
A-10-----7------5-----3--------------------
E-8----------------------------------------
  C5     E5     D5    C5
Eu prefer bataia continua in jos in pre-chorus. 

Chorus: C"5,G"5,E5-D5,B5-C5

E------------------------------------
B------------------------------------
G----3------4------------------------
D----5------3--------9-7-----4-5-----
A----3------5--------7-5-----2-3-----
E-----------3------------------------
     C"5    G"5      E5-D5    B5-C5