Carla's Dreams - Sub pielea mea

  • (2 voturi)
  • Contribuție:  Radu Stefan
  • Ultima actualizare: 22.11.2015
Am
M-ai mintit cu vorbe
Am
Mi-ai aflat secretele
F                  E7
Si ca un hot ai intrat sub pielea mea
Am                          Am
Dar stii de-o vreme fetili, fetili cochetili
F
Nu mai pot dar tu da
E7
Sub pielea mea
Am               Am
Si stii
F                  E7
Eu te rog sa nu faci prostii
Am            Am   
Eu nu-s prost, dar ma tem cumva
F
De mine de tine de noi
E7
Pentru ca tu esti sub pilea mea

Am          Am  
Hop heroina hop heriona
F               E7
Hop hop heroina mea (X4)

Un intro simplificat folosind aceste acorduri (mi se pare mai usor asa si nu suna rau) :

2X 
           Am                      F                 E7   
e|----0 (pauza) 0-----------|------1---------|-------0-------
B|----1-----------3-1-3-1---|------1---------|-------0-------
G|----2-------------------2-|------1---------|-----1---------
D|--------------------------|---3------------|---0-----------
A|-0------------------------|-3--------------|-2-------------
E|--------------------------|----------------|---------------



Bataie...faceti si voi dupa ureche. In unele parti ale melodiei mai folosesc si ciupitura:

        Am                Am              F            E7  
e|----------0-----|----------0----|---------1-----|---------0----
B|-----1------1---|------1-----1--|-----1-----1---|-----0-----0--
G|---2---2------2-|---2----2----2-|---2---2-----2-|---1---1-----1 
D|-2--------------|-2-------------|-3-------------|-0------------ 
A|----------------|---------------|---------------|--------------
E|----------------|---------------|---------------|--------------

Have fun ;)
  • Radu Stefan
    24 ianuarie 2016 19:25
    incearca cu jj s sjs... suna destul de bine ;)
  • van_gocea
    24 ianuarie 2016 16:03
    si o bataie ?..nu ma pricep asa bine
  • Radu Stefan
    25 decembrie 2015 14:33
    @emdeevy stefan_radu77@yahoo.com ;)
  • emdeevy
    23 decembrie 2015 14:44
    Radu, vreo sansa sa pot da de tine cumva? un facebook, un mail ceva?