Carla's Dreams - Sub pielea mea (intro)

  • (1 voturi)
  • Contribuție:  GAM
Nu este exact intro-ul ,dar seamana:

e-------------------------------------------
B----------------4-5-4-5-555--444-----------
G-1/2---------4-5----------------555-444----
D-------5-7------------------------------7--
A-0-----------------------------------------
E-------------------------------------------


e-4h5-4h5-4h5/7/8-10-12-10-12-----
B---------------------------------
G---------------------------------
D---------------------------------
A---------------------------------
E---------------------------------

Eu cânt si asta chiar dacă melodia nu sună asa:

e-12x4---10x4--8-7-8-7-5-4-5-------
B----------------------------------
G----------------------------------
D----------------------------------
A----------------------------------
E----------------------------------

Apoi continuati cu acordurile Am ,F ,E7 

h- hammer on-loveste
/- slide -aluneca
x4- de 4 ori