Celelalte Cuvinte - Fantana suspinelor - intro

o varianta minimala.

e|-3-------3---2-------2---0-0-2-3-----3---
B|-0-----0-----0-----0-----1-1-3-0---0-----
G|-0---0-------0---0-------0-0-2-0-0-------
D|-2-----------0---------------0-2---------
A|-------------------------3-3-------------
E|-----------------------------------------

e|-3-------3---2-------2---0-0-2-0---------
B|-0-----0-----0-----0-----1-1-3-0---------
G|-0---0-------0---0-------0-0-2-0---------
D|-2-----------0---------------0-2---------
A|-------------------------3-3-------------
E|-----------------------------------------

e|-7-------7---5-------5---3-3-5-7-----7---
B|-0-----0-----0-----0-----0-0-0-0---0-----
G|-0---0-------0---0-------0-0-0-0-0-------
D|-5-----------4-----------2-2-4-5---------
A|-----------------------------------------
E|-----------------------------------------

e|-7-------7---5-------5---3-3-2-0---------
B|-0-----0-----0-----0-----0-0-0-0---------
G|-0---0-------0---0-------0-0-0-0---------
D|-5-----------4-----------2-2-0-2---------
A|-----------------------------------------
E|-----------------------------------------
  • Bogdan Alin
    16 iunie 2008 17:54
    bravo.
6Ld5REUUAAAAAA1PBEDya2BDGnf5rYKeKnmYm4Cz
5af71e3c376c92d515c20731f836c897