Chester - Asta ramane in istorie

  • (2 voturi)
  • Contribuție:  anonim2621
acordurile pe strofa sunt 

e|---0---0---4---2---4---2---5---|
B|---0---2---5---3---5---2---5---|
G|---4---2---6---4---6---2---6---|
D|---2---2---6---4---6---4---7---|
A|---4---0---4---2---4---4---7---|
E|---x---x---x---x---x---2---5---|

in aceasta ordine


si pe refren(caci eu astept pamantul....) suna cam asa

e|---0---4---5---7------|
B|---0---4---5---7------|
G|---0---5---6---7------|
D|---2---6---7---9------|
A|---2---6---7---9------|
E|---0---4---5---7------|

nu ma injurati ca nu o stiu pe toata...
c34303634121d8e876855154c8bfeee6