Cleopatra Stratan - De ce

  • (25 voturi)
  • Contribuție:  anonime
Paternul de ciupit:

	pentru Bm          pentru Em         
|------------------|--------------------|
|---------------3--|-----------------0--|
|---------4--------|-----------0--------|
|------------4-----|--------------2-----|
|------2-----------|--------2-----------|
|------------------|--------------------|


Intro:

   Bm
E||-------|-------|-------|-------||-----------------------|
B||-------|-------|-------|-------||-----------------------|
G||-------|-------|-------|-------||*--4---------2---------|
D||-------|-------|-------|-------||*----------------------|
A||-------|-------|-------|-------||-----------------------|
E||-------|-------|-------|-------||-----------------------|

 Em                                Bm
----------------|-------|-------|-------------------------||
----------------|-------|-------|-------------------------||
----------------|-------|-------|--0---------0-----2-----*||
--2-------------|-------|-------|-------4-------------4--*||
----------------|-------|-------|-------------------------||
----------------|-------|-------|-------------------------||

    Bm                          
Ma intereseaza totul ce se petrece-n jurul meu
          G
De ce il vad plangand pe tata cand canta despre tatal sau
Em      Bm
De ce? De ce?

De ce tot se vorbeste-n lume precum ca viatza scurta e
Dar nimeni nu ne poate spune in comparatie cu ce
De ce? De ce?

	Refren.
	
	G
	E-o simpla intrebare
                              Em             
	Dar s-o inteleg mai e un pic
	 Bm
	Mai e
	  G
	Pan` ma voi face mare
 	                Em
	Acum nu inteleg nimic
	 Bm
	De ce?

De ce pe tata-l aud cantand precum ca bea non-stop
Dar nicioadata nu l-am vazut sa bea si el macar un strop
De ce? De ce?

De ce ne trebuie 2 ani pentru a invata de la parinti,
Iar 50 sa tinem limba dupa dinti?
De ce? De ce?

	Refren.