Cleopatra Stratan - Ghita

  • (4 voturi)
  • Contribuție:  richardo
  • Ultima actualizare: 16.09.2010
Asa imi suna mie bn nush daca ptr voi e la fel...
Intro:
(PARTEA CU :"Hainitza sta in cui,afara soare nu-i,nimic nui bun pe 
drum....ma gANDESC LA GHITA pana la al doilea ma gandesc la GHITA)

E------------||--------------||---------------||---------------||
A------------||--------------||---------------||---------------||
D------------||--------------||---------------||---------------||
G------------||--------------||-3-3-3-3---3---||-2-2-2-0-3-2---||
B-3-3-3-3-4-3||1-1-1-1--3---1||---------1-----||---------------||
E------------||--------------||---------------||---------------||


 C               G
Greu, tare mi-i de greu
 Dm               Am
Vreu, dar nu ştiu ce vreu
C               G
ştiu că şi tu mă placi
   Dm              E
Spune Ghiţă ce te faci

 C             G
Ori vino, ori te du
     Dm        Am
Ori spune da ori nu
  C            G
Eu te rog nu ma-nerva
    Dm          E
Ghiţă, ce-i cu viaţa ta

        Refren:

	Am    G
	Ghiţă, 
                             Am
	Te-aştept diseară la portiţă
                G            E
	Lângă portiţa de la şcoală

	Vino,
	Dar numai nu veni cum vii tu
	De obiceu cu mâna goală

	Cine
	Te mai aşteaptă ca şi mine
	O seară-ntreagă numai pe tine

	Ghiţă,
	Arată tu o fată care
	Să te iubească aşa de tare

Bridge:

|-----------------------|-----------------------|
|-----------------------|-----------------------|
|-----------------------|--4----5----L----------|
|--2s----7----L---------|-----------------5--5--|
|-----------------------|-----------------------|
|-----------------------|-----------------------|

    
------------------|----------------------|---------------------|
------------------|----------------------|---------------------|
------------------|----------------------|---------------------|
--5--5--5----L----|--3--3--3--2--2----L--|----2--2--2--5--5----|
------------------|----------------------|---------------------|
------------------|----------------------|---------------------|

------------------------|--------------------|----------------------|
------------------------|--------------------|----------------------|
------------------------|---------------4----|--5--L----------------|
-L----2--3--2--3--2--3--|--2s----7-----------|----------5--5--5--5--|
------------------------|--------------------|----------------------|
------------------------|--------------------|----------------------|


    
------------------|-----------------------|-------------------------|
------------------|-----------------------|-------------------------|
------------------|-----------------------|-------------------------|
-5----L-----3--3--|--3--2--2----L---------|--2--3--3s--5--5----L----|
------------------|-----------------------|-------------------------|
------------------|-----------------------|-------------------------|

     
----------------------|----------------------||
----------------------|----------------------||
----------------------|----------------------||
------------3----L----|--2----L--------------||
----------------------|----------------------||
----------------------|----------------------||


Refren.

Sper sa intelegeti si bafta la ....zdranga-zdranga!!!!
  • richardo
    14 septembrie 2010 12:15
    ms:)
  • MaxDaymond
    13 mai 2010 23:47
    inceputul e misto