Cleopatra Stratan - Ghiță

Intro:

                C                         G  
E||------------------------|------------------------|
B||------------------------|------------------------|
G||------------------------|------------------------|
D||------------------------|------------------------|
A||------------------------|--7--7--5-----5----L----|
E||-------5--7--8----L-----|-----------8------------|

                                       Dm         Am
------------------------------------|------------------------|
------------------------------------|------------------------|
------------------------------------|------------------------|
------------------------------------|------------------------|
--(5)--(7)--(5)-------(5)--L--------|--8--8--7--5------------|
-----------------(8)----------------|--------------5----L----|

             C                         G
-------------------------|------------------------|
-------------------------|------------------------|
-------------------------|------------------------|
-------------------------|------------------------|
-------------------------|--7--7--5-----5----L----|
-----5--5--7--8----L-----|-----------8------------|

                                 Dm              E
--------------------------------------|-------------------------|
--------------------------------------|-------------------------|
--------------------------------------|-------------------------|
--------------------------------------|-------------------------|
--(5)--(7)--(5)-------(5)--L-----4g5--|--5----------------------|
-----------------(8)------------------|-----8--8--7--7----L--L--|

       Am
Hăinița stă în cui
        G
Afară soare nu-i 
           F
Nimic nu-i bun de când
      E
Mă gândesc la Ghiță

Da Ghiță nu-i în sat
Eu m-am interesat
Îmi pare că-i plecat
După graniță

 C               G
Greu, tare mi-i de greu
 Dm               Am
Vreu, dar nu știu ce vreu
C               G
Știu că și tu mă placi
   Dm              E
Spune Ghiță ce te faci

 C             G
Ori vino, ori te du
     Dm        Am
Ori spune da ori nu
  C            G
Eu te rog nu ma-nerva
    Dm          E
Ghiță, ce-i cu viața ta

        Refren:

	Am    G
	Ghiță, 
                             Am
	Te-aștept diseară la portiță
                G            E
	Lângă portița de la școală

	Vino,
	Dar numai nu veni cum vii tu
	De obicei cu mâna goală

	Cine
	Te mai așteaptă ca și mine
	O seară-ntreagă numai pe tine

	Ghiță,
	Arată tu o fată care
	Să te iubească așa de tare

Bridge:

|-----------------------|-----------------------|
|-----------------------|-----------------------|
|-----------------------|--4----5----L----------|
|--2s----7----L---------|-----------------5--5--|
|-----------------------|-----------------------|
|-----------------------|-----------------------|

    
------------------|----------------------|---------------------|
------------------|----------------------|---------------------|
------------------|----------------------|---------------------|
--5--5--5----L----|--3--3--3--2--2----L--|----2--2--2--5--5----|
------------------|----------------------|---------------------|
------------------|----------------------|---------------------|

------------------------|--------------------|----------------------|
------------------------|--------------------|----------------------|
------------------------|---------------4----|--5--L----------------|
-L----2--3--2--3--2--3--|--2s----7-----------|----------5--5--5--5--|
------------------------|--------------------|----------------------|
------------------------|--------------------|----------------------|


    
------------------|-----------------------|-------------------------|
------------------|-----------------------|-------------------------|
------------------|-----------------------|-------------------------|
-5----L-----3--3--|--3--2--2----L---------|--2--3--3s--5--5----L----|
------------------|-----------------------|-------------------------|
------------------|-----------------------|-------------------------|

     
----------------------|----------------------||
----------------------|----------------------||
----------------------|----------------------||
------------3----L----|--2----L--------------||
----------------------|----------------------||
----------------------|----------------------||


Refren.
  • Diaconu Iustin
    12 noiembrie 2014 20:06
    Care este bataia?
  • Mihai Dascalescu
    1 mai 2011 14:43
    http://www.youtube.com/watch?v=5zAA7b-21hs&feature=related intro-ul meu daca va e de ajutor
6Ld5REUUAAAAAA1PBEDya2BDGnf5rYKeKnmYm4Cz
537ca134949f298c0f3fe39adc81fac6