Cleopatra Stratan - Ghita

  • (37 voturi)
  • Contribuție:  anonim152
Transposed by: Jonathan Balaban

Intro: --x--- Am  Am --x-- Dm Dm Dm --x---x-- C  C  C

e------------------------------------------------------------------
b------------------------------------------------------------------
g------------------------------------------------------------------
d----2-2-2-2-2-----------------------------------------------------
a-------------------0--2--3---7-7-5-3-5---5-7-5-3-5---8-8-7-5-0----
E------------------------------------------------------------------

e------------------------------------------------------------------
b------------------------------------------------------------------
g------------------------------------------------------------------
d------------------------------------------------------------------
a-------3-2-0-2-3----7-7-5-3-5----5-7-5-3-5----5-5-3-3-2-2--------
E------------------------------------------------------------------

Am
      Hainitza sta in cui
G
      Afara soare nu-i
Dm
      Nimic nu-i bun de cand
E
Ma gandesc la Ghita
Am
       Dar Ghita nu-i in sat
G
       Eu m-am interesat
Dm
       Imi pare ca-i plecat 
Em (E)
Dupa hranita...

Am		       G
Greu, tare mi-i de greu,
Dm			Am
Vreau, da nu stiu ce vreau;
Am		     G
Stiu ca si tu ma placi
Dm		     E
Spune Ghita ci ti faci.
Am	            G
Ori vina ori ti du
Dm		   Am
Ori spune da ori nu
Am		      G
Eu te rog nu ma-nerva
Dm		      E
Ghita ce-i cu viata ta?


Am  Dm		    C		
Ghita, te-astept diseara la portita
	Em
Langa portita de la scoala
Am  Dm		           C
Vino da numa nu vini cum vii tu
   G			 E
De obicei cu mana goala
Am  Dm 		      C
Cine te mai asteapta ca si mine
	 Em
O seara intreaga numai pe tine.
Am   Dm		   C
Ghita, arata-mi tu o fata care
	G		E
Sa te iubeasca asa de tare!

e----------------------------------------|
b----------------------------------------|
g----------------------------------------|
d----2--7---9-10---5-5-5-5-5--3-3-3-2--2-|
a----------------------------------------|
E----------------------------------------|

e|-----------------------------------------
b|-----------------------------------------
g|-----------------------------------0---1-
d|---2-2-2-5--5----2-3-2----2---0----------
a|-----------------------------------------
E|-----------------------------------------

e------------------------------------------------------------
b------------------------------------------------------------
g------------------------------------------------------------
d------7---9-10---5-5-5-5-5--3-3-3-2-2----2-3-3-5--5----3--2-
a------------------------------------------------------------
E------------------------------------------------------------
  • olimpiu_s
    18 februarie 2013 18:37
    Am-Dm-C-G pentru refren
  • olimpiu_s
    18 februarie 2013 18:35
    E ok tab-ul, dar eu as incerca cu Am-G-F-E pentru strofa si
    Am-Dm-C-G, parca suna un pic mai aproape de adevar.
6Ld5REUUAAAAAA1PBEDya2BDGnf5rYKeKnmYm4Cz
4c9eac31d73e401d7653a66809f51c37