Cleopatra Stratan - Ghita (intro)

  • (32 voturi)
  • Contribuție:  anonim133
Intro:

E||------------------------|------------------------|
B||------------------------|------------------------|
G||------------------------|------------------------|
D||----------------2-2-2-2-|---------2-2-0----0-----|
A||---0-0-2-3--------------|--0-2-3--------3--------|
E||------------------------|------------------------|


---------------------------|------------------------|
---------------------------|------------------------|
---------------------------|------------------------|
---(0)-(2)-(0)-----(0)-----|--2/3-3-2-0-------------|
---------------(3)---------|------------0-----------|
---------------------------|------------------------|


---------------------------|------------------------|
---------------------------|------------------------|
---------------------------|------------------------|
---------------------------|--2-2-0-----------------|
--(3)-(2)-(0)-(2)-(3)------|--------3-3/5-----------|
---------------------------|------------------------|

                                 
---------------------------|-------------------------|
---------------------------|-------------------------|
---------------------------|-------------------------|
---(0)-(2)-(0)-----(0)-----|-0-0---------------------|
---------------(3)---------|-----3-3-2-2-------------|
---------------------------|-------------------------|