Cleopatra Stratan - Oare cat

  • (4 voturi)
  • Contribuție:  adimg
Intro:

E---------------------------------------------------------
B---------------------------------------------------------
G---------------------------------------------------------
D--------------0-2-0-----0--------------0-----0-----------
A----0-2-3-2-3-------3-0--------2---2-3---3-2---3-2-------
E--3------------------------------3-----------------------

E---------------------------------------------------------
B---------------------------------------------------------
G---------------------------------------------------------
D---------------------------------0-----0-----------------
A--3-3-3-2-3-2-0----------2---2-3---3-2---3-2-------------
E----------------3-1--------3-----------------------------


Refren:

     Am                     Dm
Oare cat o sa ma certe tata tam tara tam
       G                               C
Sa ma culc in pat atunci cand noaptea bate la geam?
         Am                        Dm
Dar nici mama incantata nu`i cand vede ca eu
        G                 C
Pun papusile sa faca nani in locul meu.


       Am                           Dm
Pe-o ureche-mi intra si pe alta-mi iese cand imi spune
G                           C 
Care lucruri trebuie sa le fac si care nu-s bune
Am                       Dm
Uite o vorba: daca m-am jucat cu canele
G                            C
Tre' neaparat sa-mi spal cu apa manele.
Am                    Dm                   
Poate am noroc sa fac si ceea ce nu se poate
G                           C
Mai ales cand tata stiu ca cearta dar nu ma bate
Am                              Dm
Stiu ca nu-ti prea place dar si tu adu-ti aminte
G                                  C 
Cand ai fost ca mine nu cred c-ai fost mai cuminte.


La la la la...mai cuminte...la la la la
E---------------------------------------------------------
B---------------------------------------------------------
G---------------------------------------------------------
D------0-2-0---------0------------------------------------
A--3-3---------2-2-3---3-2---0-0-2-3-3h5-------0-2-3-2----
E------------------------------------------3-3------------


Refren:


Succes!
6Ld5REUUAAAAAA1PBEDya2BDGnf5rYKeKnmYm4Cz
dc3f9bc745ba3d778f3fbfc707951694