Cleopatra Stratan - Surprize

  • (1 voturi)
  • Contribuție:  adimg
Intro:

E---------------------------------------------------------
B---------------------------------------------------------
G---------------------------------------------------------
D--------------------3-2-0--------------------------------
A--2-3-3h5-5---5-5-5--------3------2-0-2-2-3-3-3-5-3-3h7--
E---------------------------------------------------------

E---------------------------------------------------------
B---------------------------------------------------------
G---------------------------------------------------------
D--------------5h7-7-7-7-5-3-2----------------------------
A--2-3-3h5-5-----------------------2-0-2-2-3-3-3-3-2-2h3--
E---------------------------------------------------------


C
Vine oaspete la mine
                 G
Bunicutul meu destept
F                   C
Oare unde o sa se-aseze
             G
Am atatea pioneze
                 Am
Hai bunicule te-astept
F                 C       
Si bunica-i pune viza
                   G
Am si pentru ea surpriza
                 Am  
Eu ma duc s-o pregatesc
F         C
Buni te iubesc.


Uite zboara avionul
N-ar fi rau sa-l memorez
Am carbune am burete
Si-n odaie pe-un perete
Eu incep sa-l desenez
Mana nici nu intra bine
Ca incepe sa lesine
De placere banuiesc
Mami te iubesc.


Ma grabesc spre gradinita
Si pe colo treaba e
Am rochita sunt fetita
Dar ma duc sa-l cert pe Ghita
Stie Ghita pentru ce
Las' sa stie-acum si tata
Ca's cea mai cuminte fata
De pe globul pamantesc
Tati te iubesc.

F          C
Tati te iubesc.


Nota:
Intro-ul se canta si intre strofe. 
Pe intro, se bat acordurile G, F, C. 

Succes!