Colinde - Am plecat sa colindam (solo)

||---------|-------------|
||---------|-------------|
||*-----0--|----------0-*|
||*-0--(5)-|--0---0--(5)*|
||---------|-------------|
||---------|-------------|

|-------0|---------|----0--|-------|
|-3-3-3--|-3-1-0^1-|-3-3---|-3-1-0-|
|--------|---------|-------|-------|
|--------|---------|-------|-------|
|--------|---------|-------|-------|
|--------|---------|-------|-------|

|----------|-----------|
|----------|---0-3-1---|
|*-2-2-2-2-|-0---------|
|*---------|-----------|
|----------|-----------|
|----------|-----------|

        1-------|  2------|
||-----|--------||--------||
||-0---|---0-3--||--------||
||---2-|-0-----*||-0-0-0--||
||-----|-------*||--------||
||-----|--------||--------||
||-----|--------||--------||

Transpunerile de pe acest site reprezintă viziunea personală a utilizatorilor asupra pieselor.
9315f19dd9e8ea7e41d47c23ec638959
f7e9d1d2-ebba-44ba-8198-e810bddf71a6