Colinde - Astazi s-a nascut Hristos (solo)

||-------------|----------|
||-------------|----------|
||*------------|-2-2-0-0-*|
||*---3-3-3----|---------*|
||--3----------|----------|
||-------------|----------|

|---------|--------|---------|-------
|---------|-3-3----|---------|-------
|-3-2-----|-----5--|-3-2-0-0-|-------
|---------|--------|---------|-3-----
|---------|--------|---------|-------
|---------|--------|---------|-------

Transpunerile de pe acest site reprezintă viziunea personală a utilizatorilor asupra pieselor.
d898729a731282769caa573d8fa7c8b1
f7e9d1d2-ebba-44ba-8198-e810bddf71a6