Colinde - Mos Craciun (solo)

  • (22 voturi)
  • Contribuție:  silvium
||------------|---------|---------|--------|
||------------|---------|---------|--------|
||*-----------|---------|---3-2---|-0-0---*|
||*---3-2-----|-0-2-3---|-------3-|-----3-*|
||--3-----3---|-------3-|-3-------|--------|
||------------|---------|---------|--------|

|-------|-------
|-------|-------
|-2---3-|-2-----
|---3---|---5-3-
|-------|-------
|-------|-------
f1869b1bf6525e8f81af447f1373c9b3