Colinde - We three kings

Track 1
     H        Q       H        Q       Q    Q    Q       H.            
E||--0-------------|----------------|-----------------|---------------|
B||-----------3----|--1-------------|--0----1----0----|---------------|
G||----------------|-----------2----|--1--------------|--2------------|
D||----------------|----------------|-----------------|--2------------|
A||--0-------------|--0-------------|-----------------|--0------------|
E||----------------|----------------|--0--------------|---------------|


  H        Q       H        Q       Q    Q    Q       H.            
--0-------------|----------------|-----------------|---------------|
-----------3----|--1-------------|--0----1----0----|---------------|
----------------|-----------2----|--1--------------|--2------------|
----------------|----------------|-----------------|--2------------|
--0-------------|--0-------------|-----------------|--0------------|
----------------|----------------|--0--------------|---------------|


  H        Q       H        Q       H        Q       Q    Q    Q     
----------------|----------------|--0--------0----|--3----1----0----|
--1--------1----|--3--------3----|----------------|-----------------|
--2-------------|--4-------------|--0-------------|-----------------|
----------------|--5-------------|----------------|--2----0---------|
----------------|----------------|--3-------------|------------3----|
----------------|----------------|----------------|-----------------|


  Q    Q    Q       H        Q       H.              H        Q     
-------0---------|----------------|---------------|----------------|
--3---------3----|--1--------0----|---------------|--0--------3----|
-----------------|--2--------1----|--2------------|--0-------------|
--0---------3----|--2--------2----|--2------------|----------------|
-----------------|----------------|--0------------|----------------|
-----------------|----------------|---------------|----------------|


  H        Q       H        Q       H        Q       H.            
----------------|----------------|----------------|---------------|
--1--------1----|--1-------------|--1-------------|--1------------|
----------------|-----------0----|-----------2----|---------------|
--2-------------|--2-------------|--3-------------|--2------------|
--3-------------|--3-------------|----------------|--3------------|
----------------|----------------|----------------|---------------|


  H        Q       H        Q       H        Q       H.            
----------------|----------------|----------------|---------------|
--1--------1----|--1-------------|--1-------------|--1------------|
----------------|-----------0----|-----------2----|---------------|
--2-------------|--2-------------|--3-------------|--2------------|
--3-------------|--3-------------|----------------|--3------------|
----------------|----------------|----------------|---------------|


  H        Q       H        Q       H        Q       H        Q     
----------------|-----------0----|--1--------0----|-----------0----|
--1--------1----|--3--------1----|-----------1----|--3-------------|
--2-------------|--4-------------|--2-------------|-----------0----|
----------------|--5-------------|----------------|--3-------------|
----------------|----------------|----------------|----------------|
----------------|----------------|----------------|----------------|


  H        Q       H        Q       H        Q       H.             
----------------|----------------|----------------|---------------||
--1--------1----|--1-------------|--1-------------|--1------------||
----------------|-----------0----|-----------2----|---------------||
--2-------------|--2-------------|--3-------------|--2------------||
--3-------------|--3-------------|----------------|--3------------||
----------------|----------------|----------------|---------------||




Duration Legend
---------------
W - whole
H - half
Q - quarter
E - 8th
S - 16th
T - 32nd
X - 64th
. - note dotted
|-n-|  - n-tuplets


Tablature Legend
----------------
L - tied note
x - dead note
g - grace note
(n) - ghost note
> - accentuded note
NH - natural harmonic
AH - artificial harmonic
TH - tapped harmonic
SH - semi harmonic
PH - pitch harmonic
h - hammer on
p - pull off
b - bend
br - bendRelease
pb - preBend
pbr - preBendRelease
brb - bendReleaseBend
\n/ - tremolo bar dip
\n - tremolo bar dive
-/n - tremolo bar Release up
/n\ - tremolo bar inverted dip
/n - tremolo bar return
-\n - tremolo bar Release down
S - shift slide
s - legato slide
/ -  slide into from below or out of upwards
\ -  slide into from above or out of downwards
~ - vibrato
W - wide vibrato
tr - trill
TP - tremolo picking
T - tapping
S - slap
P - pop
< - fade in
^ - brush up
v - brush down
6Ld5REUUAAAAAA1PBEDya2BDGnf5rYKeKnmYm4Cz
7b4443494a1d9aabf98230c67ecf1641