Coma - Canta-mi povestea

  • (44 voturi)
  • Contribuție:  Lestat
  • Ultima actualizare: 28.04.2009
intro
E||---------------------------------------------------|
B||---------------------------------------------------|
G||---------------------------------------------------|
D||---------------------9--------------4--5-----5--4--|
A||--7--------7--9--10-------10--9--5--------3--------|
E||---------------------------------------------------|
		 
                    C
Cand n-ai sa ma mai chemi 
%D	       Em
Va fi ecoul slab
	     C
Si camera de zi
%D		  Em
Va fi-mbracata-n alb
		     C
Cand n-ai sa ma mai chemi
%D	       Em
Va fi ceasul stricat
		  C
Si multe sensuri noi
%D	    Em
Pe chipul hasurat

ref:
%Em              Am
Canta-mi povestea
C	  G
Sa nu mai uiti nicicand, nicicum
Em       Am
Adu-mi vestea
C	 G
Din gura ta va suna bine oricum 
Em           Am
Strange-mi lucrul
C           G
Si-arata-mi drumul cel mai scurt
Em     Am
Du-ma aiurea
C           G                 Em    Am        
Si spune-mi ca nu-ti cer prea mult...
      C     G
prea mult

Cand n-ai sa mai deschizi
Sertarul din priviri
Ramane-va inchis
In prada intipluit
Cand n-ai sa mai deschizi
Voi stii sa te ascult
Prin mii de ganduri prins
In pagini de demult

ref:
Canta-mi povestea
Sa nu mai uiti nicicand, nicicum
Adu-mi vestea
Din gura ta va suna bine oricum 
Strange-mi lucrul
Si-arata-mi drumul cel mai scurt
Du-ma aiurea
Si spune-mï ca nu-ti cer prea mult...prea mult
  • GuitarBugg
    26 august 2015 21:27
    scuzati am uitat de primele doua "/"
    E||---------------------------------------------------|
    B||---------------------------------------------------|
    G||---------------------------------------------------|
    D||---------------------9--------------4/5-----5/4----|
    A||--7--------7/9--10-------10--9--5--------3----------|
    E||---------------------------------------------------|
  • GuitarBugg
    26 august 2015 21:25
    tabu-l nu este ok, ar fi trebuit asa
    E||---------------------------------------------------|
    B||---------------------------------------------------|
    G||---------------------------------------------------|
    D||---------------------9--------------45-----5/4--|
    A||--7--------79--10-------10--9--5--------3--------|
    E||---------------------------------------------------|
  • Radu.
    25 septembrie 2011 18:11
    e bun tab-ul felicitari. pentru cei care au critica degeaba.. face-ti voi alt tab! Nu e musai sa fie power chord-uri.. exista si variantele acustice.. si acordurile sunt bune.!
  • catalins
    11 august 2010 20:12
    @Ciu : nu, nu e niciun Bm acolo...pur si simplu este Em pe ultimul cuvant din vers (pe "nicicum", "oricum" si "scurt" ) ... parerea mea
  • Ciu
    31 iulie 2009 14:08
    La refren, dupa G urmeaza Bm (pe acelasi vers)..pt ca altfel lipseste ceva si nu suna bine..ascultati cu atentie melodia si veti vedea..in rest e ok..good job :)
6Ld5REUUAAAAAA1PBEDya2BDGnf5rYKeKnmYm4Cz
e41236e1b399d2c7b82b99a621981838