Coma - Canta-mi povestea

  • (15 voturi)
  • Contribuție:  Lamb
  • Ultima actualizare: 08.08.2010
intro
E||---------------------------------------------------|
B||---------------------------------------------------|
G||---------------------------------------------------|
D||---------------------9--------------4--5-----5--4--|
A||--7--------7--9--10-------10--9--5--------3--------|
E||---------------------------------------------------|

                    C
Cand n-ai sa ma mai chemi 
D	       Em
Va fi ecoul slab
Em	     C
Si camera de zi
D		  Em
Va fi-mbracata-n alb
Em		     C
Cand n-ai sa ma mai chemi
D	       Em
Va fi ceasul stricat
Em		  C
Si multe sensuri noi
D	    Em
Pe chipul hasurat

refren:
Em       Am       C
Canta-mi povestea
	  G             Em
Sa nu mai uit nicicand, nicicum
   Am      C
Adu-mi vestea
	 G            Em
Din gura ta va suna bine oricum 
         Am       C
Strange-mi lucrul
            G              Em
Si-arata-mi drumul cel mai scurt
    Am    C
Du-ma aiurea
         G                 Em    Am         
Si spune-mi ca nu-ti cer prea muuult
      C     G
prea muuuuuuult

Em Am C G

Cand n-ai sa mai deschizi
Sertarul din priviri
Ramane-va inchis
In prada intipluit
Cand n-ai sa mai deschizi
Voi stii sa te ascult
Prin mii de ganduri prins
In pagini de demult

refren:
Canta-mi povestea
Sa nu mai uiti nicicand, nicicum
Adu-mi vestea
Din gura ta va suna bine oricum 
Strange-mi lucrul
Si-arata-mi drumul cel mai scurt
Du-ma aiurea
Si spune-mï ca nu-tï cer prea mult...prea mult

                                                                           .
pentru orice fel de sugestii id: nothingelsematters_22
  • andrei andrei
    24 ianuarie 2011 11:46
    este foarte buna piesa numai ca soloul ar trebui sa sune cam asa:
    E|----------------------------------------------------|
    B|----------------------------------------------------|
    G|----------------------------------------------------|
    D|-------------------9----------------4----5-----5---4|
    A|---------7---7--9------10--9----5------------3------|
    E|----------------------------------------------------|
  • Lamb
    10 septembrie 2010 16:02
    asculta melodia si ia bataia de acolo ca ti o da ea singura
  • milly.
    2 iulie 2010 14:31
    care e bataia sigura totusi?
  • Lamb
    24 septembrie 2009 17:30
    Matric man imi pare rau dar nu sunt bun ca si profesor...sincer ti as fi scris care e bataia mie mi vine din mana dar cred ca e ceva de genul J S S care se repeta intr un ritm alert pana la sfarsit - doar la de la refren bat de 3 ori in jos (J J J) si revin pe bataia initiala...oricum nu e greu parerea mea. ps dante123 multumesc
  • dante123
    10 septembrie 2009 16:47
    bravo.foarte bine scoase acordurile;)
6Ld5REUUAAAAAA1PBEDya2BDGnf5rYKeKnmYm4Cz
03f38021cdda76fc3dfde5fe48751b23