Compact - Calator spre infinit (intro)

  • Contribuție:  rokin
  • Ultima actualizare: 12.03.2014
e ----------------------------------------------------------------------------
B ----------------------------------------------------------------------------
G -----5--4----5-5----4-----5-----5-4---5-5----4-----5------------------------
D ------7--5-7-----7-7-5-----------7-5-7----7-7-5-------7-9-9-10-9-9-10-9-7-9-
A -0-0----------0--------5s7--0-0--------0--------5s7--8---8----8-8----8-8----
E ----------------------------------------------------------------------------


e  ---------------------------------------------------------
B ----------------------------------------------------------
G ----------------------------------------------------------
D -3---5-----5L-5-----5-----7s5-----5-----5L-5------5---7s5-
A -0-0-3-0-0-3L-3-0-0-3--0--5s3-0-0-3-0-0-3L-3-0-0--3-0-5s3-
E ----------------------------------------------------------


e ---------------------------------------------------------------
B ---------------------------------------------------------------
G ---------------------------------------------5-----5-7-----7-9-
D -----5-----5L-5-----5---7s5----------3-----3-3-----3-5-----5-7-
A -0-0-3-0-0-3L-3-0-0-3-0-5s3----3-2-0-0-0-0-0---0-0-----0-0-----
E ----------------------------0-3-----3--------------------------