Compact - Cântec pentru prieteni

Capodastru pe II sau transpuneți în B

Intro: 

     A          E               D                    E 

E||--7-------7--6------------|--------------------------|---------||
B||------------------7-------|--------------------------|---------||
G||-----------------------8--|--9-------9--8----6-------|---------||
D||--------------------------|-----------------------9--|--9------||
A||--------------------------|--------------------------|---------||
E||--------------------------|--------------------------|---------||


A     E          D   E
În seara asta mare
A     E         D   E
Cu toții vom cânta-a
A     E    D       E
Va fi o sărbătoare
A     E         D  E
Ce n-o putem uita-a

	A      E        D  E
	E , e, e, e, e, e, e

	(2 ori) 


S-aprindă fiecare
Scânteia ce-i va da
Speranța pentru mâine,
Puterea de-a visa

solo:

     A          E               D                    E             A

E||--7----7--6------------|--------------------------|--7-----7--9----------||
B||---------------7-------|--------------------------|--------------11------||
G||--------------------8--|--9-------9--8----6-------|----------------------||
D||-----------------------|-----------------------9--|----------------------||
A||-----------------------|--------------------------|----------------------||
E||-----------------------|--------------------------|----------------------||

     E           D              E
E||--------------------------|--------------------------|
B||--------------------------|--------------------------|
G||--11--13----13--11--9-----|--------------------------|
D||--------------------------|--13--13------------------|
A||--------------------------|--------------------------|
E||--------------------------|--------------------------|


	A      E        D  E
	E , e, e, e, e, e, e

	(2 ori) 

C      G          F      G
Ai nevoie de-un prieten
C     G         F    G
Pe care cu adevarat
C       G               F     G
Să-l simți aproape de tine
C       G                      F   G  A
Atunci când viața greu te va-ncerca-a-a

	solo

	A      E        D  E
	E , e, e, e, e, e, e

	(până la sfârșit)
6Ld5REUUAAAAAA1PBEDya2BDGnf5rYKeKnmYm4Cz
b990a65436b8a7d3c5cc9fe92a662f1f