Compact - Fata din Vis

  • (7 voturi)
  • Contribuție:  Sanitarium
  • Ultima actualizare: 18.03.2010
D                 G         A
E|---------0---------------0----------------------|
B|-----3-----3-2-3-------3----------3-------------|
G|---2---2-------------0----------2---2-----------|
D|-0----------------------------------------------|
A|-----------------------------0------------------|
E|-------------------3----------------------------|


 D                 G          A          D                 G
E|---------0---------------0-----------------------0----------------2-0---------|
B|-----3-----3-2-3-------3----------3----------3-----3-2-3--------3-----3-2-3---|
G|---2---2-------------0----------2---2------2---2--------------0---------------|
D|-0---------------------------------------0------------------------------------|
A|-----------------------------0------------------------------------------------|
E|-------------------3---------------------------------------3------------------|



Bm/A - notez asa Bm cu La in bas anume...


E|----2----
B|----3----
G|----4----
D|----4----
A|----A----
E|----x----



                 
Imi amintesc de tine
Stateai in fata mea,
A fost de-ajuns o privire
Ce n-o pot, n-o pot uita.
Cu bratele-amandoua,
Incerc sa te regasesc,
Sa fim din nou impreuna,
E tot ce pot, sa imi doresc.

Cu gandul pret de o clipa
Sa te-nteleg as fi vrut,
As fi ramas cu tine,
C-am sa te pierd nu am crezut.
Afara numai vantul,
Gonind prin noapte spunea,
Sa las in urma timpul,
Ce mult prea, prea iute alerga.

                     
Pornesc la drum prin noapte,
                          
 In noaptea-n care ti-am zis,
                     
 Ca numai tu dintre toate,
                   
Doar tu esti fata din vïs.


Privesc la trenul care,
Ducea nepasator,
Caldura soaptei tale,
Ce-avea so piarda pana-n zori.
Afara numai vantul,
Gonind prin noapte spunea,
Sa las in urma timpul,
Ce mult prea, prea iute alerga.

              
Daca vrei, daca vrei
                
Voi fi cu tine,
Daca vrei, daca vrei
Voi sta langa tine.
  • vladu_m
    31 august 2011 23:43
    cum e bataia?
  • Dariusul
    27 noiembrie 2010 01:21
    daca acordati chitara cu un ton mai jos se poate canta dupa original din Do major