Compact - Fata din vis

Originalul este din C ... dar totusi eu cred ca este cam sus:) 
Varianta mea se canta din E

Intro:
E                          A               B               E    ...
E|-----0------2--0-----0----------0-----------------0-----------------|
B|----------0-------4-----------------0----------------0--------------|
G|---4----------------------------------------------------------------|
D|-2---------------------------2----------------4---------------------|
A|-------------------------0---------------2--------------------------|
E|--------------------------------------------------------------------|

Intro x 4

Strofa:
E               B           A               B
   Imi     amin-tesc de    tine                   
E|-----0---------------0------------0---------------0---------------|
B|----------0------------0------------0----------------0------------|
G|---4--------------------------------------------------------------|
D|-2----------------4-----------2----------------4------------------|
A|--------------2-----------0---------------2-----------------------|
E|------------------------------------------------------------------|

Se repeta

Refren:
  C#m            B           A           
  Pornesc la    drum prin   noapte          ooooo
E|-------0-------------0------------0---------------0-------------|
B|----------0------------0------------0----------------0----------|
G|----------------------------------------------------------------|
D|-----6------------4-----------2----------------4----------------|
A|--4------------2-----------0---------------2--------------------|
E|----------------------------------------------------------------|
Se repeta

Si dupa fiecare refren mai faceti intro-ul.

Sper ca v-am fost de folos:)