Compact - O casa fara numar

  • (2 voturi)
  • Contribuție:  Razzvy
  • Ultima actualizare: 24.06.2010
Se canta de 4 ori la intro si de 2 ori dupa refren. 

B: --10-10-9--------7-7-9-9---------7-7-0---------10-10-9-9-7-7-7
G: ---9--9-9--------9-9-9-9---------9-9-9----------9--9-9-9-9-9-9

Daca ma placi asa cum sunt eu
Daca ai sa vezi in mine
Cel care poate oricand sa iti dea
Din nou incredere in tine
N-ar trebui sa cauti prea mult
Voi fii foarte aproape
Daca tu simti ce simt eu acum
Vom merge mai departe

N-am sa-ti ascund acum
Ca mi-e gandul doar la tine
N-am sa-ti ascund
Ca mi-e foarte dor

B: --10-10-9--------7-7-9-9---------7-7-0---------10-10-9-9-7-7-7
G: ---9--9-9--------9-9-9-9---------9-9-9----------9--9-9-9-9-9-9

Nu mai conteaza ce crezi tu acum
Noi vom gasi alta cale
Poate ca eu te voi urma
Mereu in visele tale
Orice vei face, oriunde vei sta
La orice distanta de mine
Te caut oricand si cred in inima mea
Zbor fara aripi spre tine

Am sa m-ascund cu tine intr-o casa fara numar
Acolo impreuna cu tine voi fii
Te voi iubi intr-o noapte fara luna
Din noaptea aceea vom face zi

B: --10-10-9--------7-7-9-9---------7-7-0---------10-10-9-9-7-7-7
G: ---9--9-9--------9-9-9-9---------9-9-9----------9--9-9-9-9-9-9

Orice vei face, oriunde vei sta
La orice distanta de mine
Te caut oricand si cred in inima mea
Zbor fara aripi spre tine

Am sa m-ascund cu tine intr-o casa fara numar
Acolo impreuna cu tine voi fii
Te voi iubi intr-o noapte fara luna
Din noaptea aceea vom face zï

B: --10-10-9--------7-7-9-9---------7-7-0---------10-10-9-9-7-7-7
G: ---9--9-9--------9-9-9-9---------9-9-9----------9--9-9-9-9-9-9