Compact - Pasari cu ochi de foc

Compact-Pasari cu ochi de foc
Autor: Constantin Camarasan

Chords:

G             G(barre)      C             E6            Am            F
|----3----|   |----3----|   |----0----|   |----0----|   |----0----|   |----1----|  
|----3----|   |----3----|   |----1----|   |----1----|   |----1----|   |----1----| 
|----0----|   |----4----|   |----0----|   |----0----|   |----2----|   |----2----|  
|----0----|   |----5----|   |----2----|   |----0----|   |----2----|   |----3----| 
|----2----|   |----5----|   |----3----|   |----2----|   |----0----|   |----3----|
|----3----|   |----3----|   |----x----|   |----0----|   |----0----|   |----1----|


D5            C5            G5   
|----x----|   |----x----|   |----x----|   
|----x----|   |----x----|   |----x----|   
|----7----|   |----5----|   |----x----|   
|----7----|   |----5----|   |----5----|   
|----5----|   |----3----|   |----5----|   
|----x----|   |----x----|   |----3----|   


EADGBE

Intro:

|---------------0--------------------0-----|-----------------0--------------------0-----|
|------3-----------3--------3--------------|--------6-----------6--------6--------------|
|---------2-----------2--------2-----------|-----------5-----------5--------5-----------|
|---0--------0-----------0--------0--------|-----0--------0-----------0--------0--------|
|------------------------------------------|--------------------------------------------|
|------------------------------------------|--------------------------------------------|



|------------0-----------------------------|--------------0-----------------------------|
|---------6-----6--------------------------|-----------5-----5--------------------------|
|------7-----------7------------------(7)--|--------7-----------7------------------(7)--|
|---8--------------------------------------|-----7--------------------------------------|
|------------------------------------------|--------------------------------------------|
|------------------------------------------|--------------------------------------------|

                                                  
                                                 
|------------0-----------------------------|-----5---------------------------------(5)--|
|---------5-----5--------------------------|-----5---------------------------------(5)--|
|------7-----------7------------------(7)--|-----6---------------------------------(6)--|
|---6--------------------------------------|-----7---------------------------------(7)--|
|------------------------------------------|-----7---------------------------------(7)--|
|------------------------------------------|-----5---------------------------------(5)--|


                        ...............|                             ...............|
|------------0-----------------0-----------|--------------0-----------------0-----------|
|---------6-----6-----------6-----6--------|-----------5-----5-----------5-----5--------|
|------7-----------7-----7-----------7-----|--------7-----------7-----7-----------7-----|
|---8-----------------8--------------------|-----7-----------------7--------------------|
|------------------------------------------|--------------------------------------------|
|------------------------------------------|--------------------------------------------|


                        ...............|
|------------0-----------------0-----------|-----5---------------------------------(5)--|
|---------5-----5-----------5-----5--------|-----5---------------------------------(5)--|
|------7-----------7-----7-----------7-----|-----6---------------------------------(6)--|
|---6-----------------6--------------------|-----7---------------------------------(7)--|
|------------------------------------------|-----7---------------------------------(7)--|
|------------------------------------------|-----5---------------------------------(5)--|



VERSE:1

      Pasari zboara                                Ne-nconjoara

|------0-----------1--------0--------------|-----0--------0--------0--------0-----------|
|---2-----3-----------3--------3-----------|--------1--------1--------1--------1--------|
|---3--------2-----------2--------2--------|-----------0--------0--------0--------0-----|
|---0--------------0-----------------------|--------------------------------------------|
|------------------------------------------|-----3--------------------------------------|
|------------------------------------------|--------------------------------------------|


      Ochi de para                                 Lasa-n seara

|------0-----------1--------0--------------|-----0--------0--------0--------0-----------|
|---2-----3-----------3--------3-----------|--------1--------1--------1--------1--------|
|---3--------2-----------2--------2--------|-----------0--------0--------0--------0-----|
|---0--------------0-----------------------|--------------------------------------------|
|------------------------------------------|-----3--------------------------------------|
|------------------------------------------|--------------------------------------------|



G                       C C E6 Am
Trec pierdute-n alte lumi
Am            Am
Nici nu sti , Nici nu sti
Distorsion
D5       C5        G5
Cum sa faci sa le ajungi
D5       C5        G5  G(barre)
Cum sa faci sa le ajungi


F       G               C E6 Am G F
Si sunt mari cu ochi de foc....|
   G             C E6 Am G F
Nascute dintr-un joc....|
     G            C E6 Am arpegiatto F G(barre)
Fara zestre sau noroc....|
           Am
Trec prin foc

Solo:(inca nu-l stiu dar ma straduiesc sa-l scot) nu prea ma atrage electrica , 
nu ca ar fi ceva rau

VERSE:2 Se repeta de la Verse pana la solo inclusiv

Si sau dus , au apus
Gand nespus , Fiara nu-s
Ne-au lasat pe toti pustii
Ca un vis , ca un vis
Au zburat spre zari tarzii 
Au zburat spre zari tarzii

Si-a ramas pustiului
Pe unde au trecut
Unde van ce ne-am pierdut
Vis cazut

Outro:

|---------------0--------------------0-----|-----------------0--------------------0-----|
|------3-----------3--------3--------------|--------6-----------6--------6--------------|
|---------2-----------2--------2-----------|-----------5-----------5--------5-----------|
|---0--------0-----------0--------0--------|-----0--------0-----------0--------0--------|
|------------------------------------------|--------------------------------------------|
|------------------------------------------|--------------------------------------------|



|------------0-----------------------------|--------------0-----------------------------|
|---------6-----6--------------------------|-----------5-----5--------------------------|
|------7-----------7------------------(7)--|--------7-----------7------------------(7)--|
|---8--------------------------------------|-----7--------------------------------------|
|------------------------------------------|--------------------------------------------|
|------------------------------------------|--------------------------------------------|

                                                  
                                                 
|------------0-----------------------------|-----5---------------------------------(5)--|
|---------5-----5--------------------------|-----5---------------------------------(5)--|
|------7-----------7------------------(7)--|-----6---------------------------------(6)--|
|---6--------------------------------------|-----7---------------------------------(7)--|
|------------------------------------------|-----7---------------------------------(7)--|
|------------------------------------------|-----5---------------------------------(5)--|



|------------0-----------------------------|--------------0-----------------------------|
|---------6-----6--------------------------|-----------5-----5--------------------------|
|------7-----------7-----------------------|--------7-----------7-----------------------|
|---8-----------------0----------------(0)-|-----7--------------------------------------|
|------------------------------------------|-----------------------0---------------(0)--|
|------------------------------------------|--------------------------------------------|


                                                   Slow...................................|

|------------0-----------------------------|----------------------------------------9s10|
|---------5-----5--------------------------|--------------------------------------------|
|------7-----------7-----------------------|---------------------------------10s14------|
|---6--------------------------------------|-----7h8--7--5-------------7s12-------------|
|------------------------------------------|----------------8--7--5s8-------------------|
|---------------------0---------------(0)--|--------------------------------------------|



Have fun :)