Connect-R - Vara nu dorm (Guitar Pro)

  • Contribuție:  eupe
  • Ultima actualizare: 24.07.2013
Asta e tab-ul pentru inceputul melodiei dar se poate folosi si de-a lungul ei.
Am unele dubii in unele locuri. Astept sugestii.

E |----------------------------------------------------|
B |--------3-----------3-----------3-----------3-------|
G |--------3-----------3-----------3-----------3-------|
D |--------5-----------5-----------5-----------5-------|
A |--------------------------5-------------------------|
E |--3-----------------------------------6-------------|


----------------------------------------------------|
--------4-----------4-----------4-----------6-------|
--------5-----------5-----------5-----------7-------|
--------5-----------5-----------5-----------7-------|
--3-----------------------3-----------5-------------|
----------------------------------------------------|


----------------------------------------------------|
--------8-----------8-----------8-----------3-------|
--------8-----------8-----------8-----------3-------|
--------8-----------8-----------8-----------3-------|
--6-----------------------6-----------1-------------|
----------------------------------------------------|


----------------------------------------------------||
--------3-----------3-----------3-----------3-------||
--------3-----------3-----------3-----------3-------||
--------5-----------5-----------5-----------5-------||
----------------------------------------------------||
--3-----------------------3-----------3-------------||
9db98c99cdc200e73a2a2b18789c71f3