Delia - (feat. Smiley) Secretul Mariei - solo inceput

E|--12--10--12--8--10--7--8--5--
B|------------------------------
G|------------------------------   X2
D|------------------------------
A|------------------------------
E|------------------------------



E|--13--12--13--10--12--8--10--7--
B|--------------------------------
G|--------------------------------   X2
D|--------------------------------
A|--------------------------------
E|--------------------------------





E|--15--13--15--12--13--10--12--8--7--8--10--
B|-------------------------------------------
G|-------------------------------------------
D|-------------------------------------------
A|-------------------------------------------
E|-------------------------------------------



E|--12--10--12--8--10--7--8--5-------------
B|------------------------------9--10--12--
G|-----------------------------------------
D|-----------------------------------------
A|-----------------------------------------
E|-----------------------------------------
							


Sper sa fie bine,am facut dupa auz
6Ld5REUUAAAAAA1PBEDya2BDGnf5rYKeKnmYm4Cz
dfb802a0dfb98165061ddde486ca989a