Desperado - Suntem de la tara (intro)

|----------------------------------------------------
|----------------------------------------------------
|--7-7-----------------------------------------------
|-------9-7h9-7--------7--7h9-7----------------------
|------------------7h9-----------7h8-7-5-------------
|----------------------------------------------------


|--------------------------------------------
|-7-7-xx-7-----------------------------------
|-7-7-xx-7-4---------------------------------
|-7-7-xx-7-5-...etc--------------------------
|-5-5-xx-5-5---------------------------------
|-5-5-xx-5-3---------------------------------
6Ld5REUUAAAAAA1PBEDya2BDGnf5rYKeKnmYm4Cz
59eb3a80b02a450f6a539843e6df8eb2