Direcția 5 - Am nevoie de tine (ver 2)

  • (14 voturi)
  • Contribuție:  anonim282
Am luat fiecare parte a chitarii 1 shi am am aratat unde 
incepe relativ cu versurile, e ushor  de inteles

Intro:

E|---------------------------------------------2-|
B|--------------------------------------3-2-3----|
G|---------2-4----2/4--2-2---2/4--2-2------------|
D|-0-2-4-5---------------------------------------|
A|-----------------------------------------------|
E|-----------------------------------------------|


E|--------5-------------------------------|
B|-3-2-3------------------------3/5--3-3--|
G|-------------2/4--2-2-------------------|
D|------------------------4-5-4-----------|
A|----------------------------------------|
E|----------------------------------------|


E|----3-2----------3-2------------|
B|---------5-3----------5-3----3--|
G|--4-----------------------------|
D|--------------------------------|
A|--------------------------------|
E|--------------------------------|
Strofa I            ^"in linishtea mea..."



In LInishtea mea,
   
ma intreb de`ash putea 
                  
sa te simt aproape din nou...
                                      
E-|---------------------||-------5--3--2~~-----|
B-|---------------------||-----3---------------|
G-|---------------------||--2------------------|
D-|---------------------||---------------------|
A-|---------------------||---------------------|
E-|---------------------||---------------------|
"Sa te simt aproape din nou"




Imi Revin amintiri,
       
Ganduri ce vor veni 
                     
sa`mi aduca in suflet un gol


E|---------------------||--0h2--0h2---0h2-(0)----|
B|---------------------||-------------------(2)--|
G|---------------------||------------------------|
D|---------------------||------------------------|
A|---------------------||------------------------|
E|---------------------||------------------------|
"...in suflet un gol"




Imi lipseshte curajul 
       
de`ati spune ce simt
                  
nimic nu s`a schimbat

E|-------||-----------------------|
B|-------||-------3---2-----------|
G|-------||----2------------------|
D|-------||--2--------------------|
A|-------||-----------------------|
E|-------||-----------------------|
Schimbat                ^sentimente pierdute....



Sentimente pierdute
       
le`am reintalnit
                 
De acum eu le`am aflat
            
Am nevoie de tine


e|-----------------------------------------------------|
B|----------------------------------------3-2 ---------|
G|-----------2-4----2/4--2-2---2/4--2-2--------4--2----|
D|---0-2-4-5-----------------------------------------5-|
A|-----------------------------------------------------|
E|-----------------------------------------------------|
Am nevoie de tine....

e|---------------------------------------------|
B|---------------------------------3/5--3-3----|
G|-------------------2/4--2-2------------------|
D|---4h5p4---2-0-2-------------4-5-------------|
A|---------------------------------------------|
E|---------------------------------------------|


e|------3-2----------3-2------------|
B|-----------5-3----------5-3----3--|
G|----4-----------------------------|
D|----------------------------------|
A|----------------------------------|
E|----------------------------------|

(asemanator cu intro si cu solo)
Apoi:

Strofa II



Azi incerc sa m`ascund 

Incerc sa nu uit
              
Ma gandesc la tine mereu


E|-----------------||----------0---|
B|-----------------||------2h3-----|
G|-----------------||----2---------|
D|-----------------||--2-----------|
A|-----------------||--------------|
E|-----------------||--------------|
Ma gandesc la tine mereu....


  
Totu`mi pare tacut, 
      
totu`mi pare pierdut
        
Devine tot mai greu


E-|-----------------||--------------------(5)-|
B-|---------5--3----||----------5--3--5-------|
G-|-2---4-----------||--2h4p2-----------------|
D-|-----------------||------------------------|
A-|-----------------||------------------------|
E-|-----------------||------------------------|
    ^se repeta peste    ^se repeta peste   ^nota asta apare odata la
    Prima parte     a  2a parte a          fiecare 3 repetari
    a refrenului    refrenului          


"Am nevoie de tine..."||"Am nevoie de tine...."

(Prima parte am considerat`o pana la "sa pot sa visez")


La sfarshitul refrenului da o data peste un A cand se termina repetarile.


Apoi:

e|-------------|
B|-----3-2-----|
G|----2----2---|
D|---2---------|
A|-------------|
E|-------------|

Solo:

e|--------------------------------------------------|
B|----------------------------------------3-2-------|
G|-----------2-4----2/4--2-2---2/4--2-2-------4-2---|
D|---0-2-4-5--------------------------------------5-|
A|--------------------------------------------------|
E|--------------------------------------------------|

e|-------------------------------------------|
B|-------------------------------3/5--3-3----|
G|----------------2/4--2-2-------------------|
D|----4h5p4-2-0-2-0---------4-5-4------------|
A|-------------------------------------------|
E|-------------------------------------------|

e|-----3-2--3-5------7-5--7-9--10--|
B|---------------------------------|
G|---4-------------6---------------|
D|---------------------------------|
A|-- -------------------------------|
E|---------------------------------|
(multumiri lui Florin Serban k pe tab`ul lui am vazut prima oara solo`ul)

Si se repeta refrenul inca o data 
cu partea pt chitara:

B-|--------------------------------|
G-|-----------2--0--2--------------|
D-|---------------------4----2-----|
A-|-----------------------------2--|
E-|--------------------------------|
Am nevoie de tine....        cand ma trezesc




E-|--------------------10-9-10-----|
G-|-----------2--0--2--------------|
D-|--------------------------------|
A-|--------------------------------|
E-|--------------------------------|
Am nevoie de tine....        Sa pot sa visez

E|----------------------------|
B|--------------5--3----------|
G|------2---4-----------------|
D|----------------------------|
A|----------------------------|
E|----------------------------|
De tine...        



E-|----5-----------5---------5--------5~~~----|
B-|------2---1------2--1------2-1-------------|
G-|-------------------------------------------|
D-|-------------------------------------------|
A-|-------------------------------------------|
E-|-------------------------------------------|
Sa nu ma uiti...

iar in rest,pentru chitara 2 sau orga, e pe timp de 4/4, 
poti folosi un arpegiu la chitara



In linishtea mea,
   
Ma intreb de`ash putea 
                  
Sa te simt aproape din nou



Imi revin amintiri,
       
Ganduri ce vor veni 
                     
Sa`mi aduca in suflet un gol



Imi lipseshte curajul 
       
De`ati spune ce simt
                  
Nimic nu s`a schimbat


Sentimente pierdute
       
le`am reintalnit
                 
De acum eu le`am aflat
            
Am nevoie de tine


Intro


Azi incerc sa m`ascund 

Incerc sa nu uit
              
Ma gandesc la tine mereu
  
Totu`mi pare tacut, 
      
totu`mi pare pierdut
        
Devine tot mai greu

Refren:
               
Am nevoie de tine...
 
Cand ma trezesc
                  
Am nevoie de tine...

Sa Pot sa visez


                  
Am nevoie de tine...

Sa ma asculti
                  
Am nevoie de tine...

Sa nu ma uiti


Solo

               
Am nevoie de tine...
 
Cand ma trezesc
                  
Am nevoie de tine...

Sa Pot sa visez


                  
Am nevoie de tine...

Sa ma asculti
                  
Am nevoie de tine...

Sa nu ma uiti


Shi,in cele din urma...
e|----------------------------------------|
B|--------------------------------35--33-|
G|-----------2-4----2/4--2-2--------------|
D|---0-2-4-5------------------4-5---------|
A|----------------------------------------|
E|----------------------------------------|


e|------3-2----------3-2------------|
B|-----------5-3----------5-3----3--|
G|----4-----------------------------|
D|----------------------------------|
A|----------------------------------|
E|----------------------------------|

singurel, cg
Ashtept comentarii,sugestii.
  • DanMihaiu
    5 februarie 2012 20:16
    Super facuta. Multumim!
  • Dexxter
    28 iulie 2010 18:53
    Bun
  • andrei guitar
    26 aprilie 2010 15:11
    e misto piesa