Direcția 5 - Si ce daca (solo)

  • (3 voturi)
  • Contribuție:  Bobu
  • Ultima actualizare: 24.01.2010
Am obs. ca nu era vreun tab pt. partea de solo la piesa asta... 
asa ca m-am hotarat sa-l pun eu;)...


E|----------------------------------------|-----------------------------|
B|----5----5----5----5--------------------|----7----7----7--------------|
G|-6----4----2----1-----------------------|-7----6----4----2--4--6------|
D|------------------------4------6--7-----|-----------------------------|
A|----------------------------------------|-----------------------------|
E|----------------------------------------|-----------------------------|

Cam asta ar veni :D
  • Bobu
    23 iunie 2012 06:03
    Merci, Andrei:D
  • Andrei90
    17 octombrie 2011 13:29
    Daca tot e sectiunea solo si chestii o leaca mai de finete am sa pun aici inceputul piesei care se repeta ca structura si in strofa, primele 2 versuri cred. daca nu reusiti numai in 3 corzi lucrati cu succesiunea de acorduri. bafta!

    A A7M A6 Asus2
    G|-2-2-2-1-1-1-1-1-|-2-2-2-4-4-4-4-4-|
    D|-2-2-2-2-2-2-2-2-|-4-4-4-2-2-2-2-2-|
    A|-0-0-0-0-0-0-0-0-|-0-0-0-0-0-0-0-0-|

    A = x02220
    A7M = x02120
    A6 = x04220 sau x02222
    Asus2 = x02200
  • Andrei90
    17 octombrie 2011 11:04
    tare:)
6Ld5REUUAAAAAA1PBEDya2BDGnf5rYKeKnmYm4Cz
3e1534ebf1c8bb3b5ac27e82cab012d4