Ducu Bertzi - Cand s-o-mpartit norocu (S-asa-mi vine cateodata)

  • (7 voturi)
  • Contribuție:  generalDona
  • Ultima actualizare: 25.04.2008
intro
   Am
|---0---0-----0---0---|
|---1---1-----1---1---|
|---2---2-----2---2---|
|---2---2-----2---2---|
|-0-0---0---0-0---0---|
|-----0---------0-----|

   Am        E        Am     G         C       G        Am
|---0---0----0---0----0--0----3---3-----0---0---3---3----0---0--
|---1---1----0---0----1--1----3---3-----1---1---3---3----1---1--
|---2---2----1---1----2--2----0---0-----0---0---0---0----2---2--
|---2---2----2---2----2--2----0---0---2-2-2-2---0---0----2---2--
|-0-0---0--2-2---2--0-0--0--2-2-2-2---3-3-3-3-2-2-2-2--0-0---0--
|-----0------0-0-0------0---3-3-3-3-----------3-3-3-3------0----

  E         Am      E       Am
|---0---0----0---0----0---0--0---0----|
|---0---0----1---1----0---0--1---1----|
|---1---1----2---2----1---1--2---2----|
|---2---2----2---2----2---2--2---2----|
|-2-2---2--0-0---0--2-2---2--0---0----|
|---0-0-0------0-0----0-0-0----0------|

  Am            E          Am   G
  S-asa-mi vine cateoadata dorule
  C             G
  S-asa-mi vine cateodata
%  Am           E
  Sa dau cu cutitu-n piatra
  Am           E            Am      Am
  Sa dau cu cutitu-n piatra dorule.......

  Una din cele mai frumoase melodii romanesti, m-am mirat cand n-am
 vazut-o transpusa pe site.
e25eb13eba57d90b17d5455625d83ebc