Ducu Bertzi - Floare de colt (bass)

Aceasta tabulatura se adreseaza in special celor care canta la chitara bass, dar se poate cnta foarte usor si la chitara acustica/clasica.
Incercati tabulatura pe aceasta melodie : https://www.youtube.com/watch?v=BahgIldD7bM

Intro:
E||--------------------------|--------------------------|
B||--------------------------|--------------------------|
G||--------------------------|--------------------------|
D||--------------------------|--------------------------|X3
A||--------------------------|--------------------------|
E||---1------2------3--------|----1-------2------3------|



E||--------------------------|--------------------------|
B||--------------------------|--------------------------|
G||--------------------------|--------------------------|
D||--------------------------|--------------------------|
A||---------------1-----3----|----------------1----3----|
E||---3-----1----------------|----3-----1---------------|
	Vis     de-argint         si de    petale

E||--------------------------|--------------------------|
B||--------------------------|--------------------------|
G||--------------------------|--------------------------|
D||--------------------------|--------------------------|
A||---------------1-----3----|----------------1----3----|
E||---3-----1----------------|----3-----1---------------|
	Cuibul     tau           e sus      pe creste 

E||--------------------------|--------------------------|
B||--------------------------|--------------------------|
G||--------------------------|--------------------------|
D||--------------------------|--------------------------|
A||---------------1-----3----|----------------1----3----|
E||---3-----1----------------|----3-----1---------------|
    Raza          ta-mi         coboara-n       cale

E||--------------------------|--------------------------|
B||--------------------------|--------------------------|
G||--------------------------|--------------------------|
D||--------------------------|--------------------------|
A||---------------1-----3----|----------------1----3----|
E||---3-----1----------------|----3-----1---------------|
	 Mai         frumos       ca-ntr-o        poveste. 

Refren:

E||--------------------------|--------------------------|
B||--------------------------|--------------------------|
G||--------------------------|--------------------------|
D||--------------------------|--------------------------|
A||--------------------------|--------------------------|
E||---3----------------------|-------------------1------|
     Tu floare                              de colt

E||--------------------------|--------------------------|
B||--------------------------|--------------------------|
G||--------------------------|--------------------------|
D||--------------------------|--------------------------|
A||---1----------------------|-------------------3------|
E||--------------------------|--------------------------|
      Minune                                 sub bolti

E||--------------------------|--------------------------|
B||--------------------------|--------------------------|
G||--------------------------|--------------------------|
D||--------------------------|--------------------------|
A||--------------------------|--------------------------|
E||---3----------------------|-------------------1------|
    Frageda                                     stea

E||--------------------------|--------------------------|
B||--------------------------|--------------------------|
G||--------------------------|--------------------------|
D||--------------------------|--------------------------|
A||---1----------------------|-------------------3------|
E||--------------------------|--------------------------|
    Iubita                                      mea! 

Floare ninsa-n varf de stanca
Mai presus de nori si stele
Cine oare sa te-ajunga? 
Numai dorurile mele! 

Floare de lumina vie
Zambet cald de dimineata
Te astept de-o vesnicie
Te-ntalnesc o data-n vïata.
7eeb759a0be56d121d0f7db3ad205b20