Ducu Bertzi - Și de-ar fi

Capodastru pe III

Intro:

chitara 1:

    Am        E7            Am         Dm             Am       E7

E||--8--------10---------|--11---------13----------|--11--------10---------|-8--|--|--|
B||-----8---------8------|------8----------13------|------8---------8------|----|--|--|
G||--------8---------10--|---------10----------13--|---------8---------10--|----|--|--|
D||----------------------|-------------------------|-----------------------|----|--|--|
A||----------------------|-------------------------|-----------------------|----|--|--|
E||----------------------|-------------------------|-----------------------|----|--|--|
                                                                            (aici incepe
                                                                             chitara 2)

chitara 2:

E||--|--|--|----0--0-----------|----0--0-----------|----0--0-----------|----0-----------|
B||--|--|--|----1--1-----0-----|----1--1-----0--L--|----1--1-----0-----|----1-----------|
G||--|--|--|----2--2-----1-----|----2--2-----1--L--|----2--2-----1-----|----2-----------|
D||--|--|--|-------------2--2--|-------------2--L--|-------------2--2--|----------------|
A||--|--|--|-0-----------------|-0-----------------|--0----------------|--0--------0----|
E||--|--|--|----------0--------|----------0--------|----------0--------|-------0--------|


Am        E7         Am        E7
Îmi aduc aminte de-o poveste veche
Am            E7       Am          E7
Cu iubirea noastră, mai ştii cum a fost?
Am            E7       Am          E7
Hai intinde-mi mâna să fim iar pereche
Am            E7     Am      E7
Depărtarea asta nu mai are rost
Dm          Am         Dm      Am
Între două zile nu-i decât o noapte
Dm                     F     E7
Orologiul bate miezul nopţii rar
Dm          Am         Dm      Am
Te visez frumoasă, tristă şi departe
Dm                     E     E7
Unde să te caut, să te găsesc iar
	
	Refren:	

chitara 1:

|---8--------10---------|--11---------13----------|
|------8---------8------|------8----------13------|
|---------8---------10--|---------10----------13--|
|-----------------------|-------------------------|
|-----------------------|-------------------------|
|-----------------------|-------------------------|


--11--------11--------|--10------------------|--8--------10---------|
------8---------8-----|------8---------------|-----8---------8------|
---------8---------8--|---------10-----------|--------8---------10--|
----------------------|----------------------|----------------------|
----------------------|----------------------|----------------------|
----------------------|----------------------|----------------------|

  
--11---------13----------|--11--------10---------|--8------------------||
------8----------13------|------8---------8------|---------------------||
---------10----------13--|---------8---------10--|--------------------*||
-------------------------|-----------------------|--------------------*||
-------------------------|-----------------------|---------------------||
-------------------------|-----------------------|---------------------||
	
chitara 2:

    Am       E           Am       Dm          Am       Am        
|---------------------|--------------1-----|--------------------|
|------1--------0-----|-----1--------3-----|-----1--------1-----|
|*-----2--------1-----|-----2-----------2--|-----2--------2-----|
|*--------2--------2--|--------2--0--------|--------2--------2--|
|---0--------2--------|--0-----------------|--0--------0--------|
|---------------------|--------------------|--------------------|


  E        E           Am       E           Am       Dm        
--------------------|--------------------|--------------1-----|
-----0--------0-----|-----1--------0-----|-----1--------3-----|
-----1--------1-----|-----2--------1-----|-----2-----------2--|
--------2--------2--|--------2--------2--|--------2--0--------|
--2--------2--------|--0--------2--------|--0-----------------|
--------------------|--------------------|--------------------|


  Am       E           Am       Am                   
--------------------|---------------------||
-----1--------0-----|-----1--------1------||
-----2--------1-----|-----2--------2-----*||
--------2--------2--|--------2--------2--*||
--0--------2--------|--0--------0---------||
--------------------|---------------------||

Am            E7
şi de-ar fi când va fi
Am               Dm
Iar duminică-ntr-o zi
Am                   E   E7
Tu să te gândeşti la mine
Am            E7
Nopţi la rând port în gând
Am               Dm
Chipul tău şi ora când 
F          E       Am
Am să mă întorc la tine

Bridge:

chitara 1:

--8--------------8--|--8--------------8--|--8--------------8--|
--8--8--------8--8--|--8--8--------8--8--|--8--8--------8--8--|
--8-----8-----------|--8-----8-----------|--8-----8-----------|
--------------------|--------------------|--------------------|
--------------------|--------------------|--------------------|
--------------------|--------------------|--------------------|

chitara 2:

  Am        E
|--------------------|
|-----1--------0-----|
|-----2--------1-----|
|--------2--------2--|
|--0-----------------|
|-----------0--------|


  Am       E           Am       E           Am                
--------------------|--------------------|-----0-------------|
-----1--------0-----|-----1--------0-----|-----1-------------|
-----2--------1-----|-----2--------1-----|-----2-------------|
--------2--------2--|--------2--------2--|-------------------|
--0-----------------|--0-----------------|--0--------0-------|
-----------0--------|-----------0--------|--------0----------|

Ochii tăi mi-acopăr de departe steaua
Când în ei mai caut singur adăpost
Înfioară noaptea, rătăcind perdeaua
Trec la rând duminici fără nici un rost

Între două zile nu-i decât o noapte
Orologiul bate miezul nopţii rar
Te visez frumoasă, tristă si departe
Unde să te caut, să te gasesc iar


	Refren.


Gândul meu întoarce amintiri uitate
Hai înspre duminici să plecăm în doi
Va veni şi ziua cea dintâi din toate
Inventată parcă numai pentru noi

Între două zile nu-i decât o noapte
Orologiul bate miezul nopţii rar
Te visez frumoasă, tristă şi departe
Unde să te caut, să te găsesc iar


Refren.
6Ld5REUUAAAAAA1PBEDya2BDGnf5rYKeKnmYm4Cz
709a68d0871f23b8d94bded0ac3fe855